ISO-10303-21;
HEADER;
FILE_DESCRIPTION ((), '1');
FILE_NAME ('T:\\CAD\\AsphXren\\S1ADX0240.STP', '2013-04-11T16:20:48', ('Unknown'), ('Unknown'), 'HarmonyWare STEP v1.5.0', 'HarmonyWare Translators', '');
FILE_SCHEMA (('CONFIG_CONTROL_DESIGN'));
ENDSEC;

DATA;
#10 = CARTESIAN_POINT ('', (15., 0., 5.35175364266474));
#20 = VERTEX_POINT ('', #10);
#30 = CARTESIAN_POINT ('', (9.18485099360515E-16, 15., 5.35175364266474));
#40 = VERTEX_POINT ('', #30);
#50 = CARTESIAN_POINT ('', (15., 0., 5.35175364266474));
#60 = CARTESIAN_POINT ('', (15., 15., 5.35175364266474));
#70 = CARTESIAN_POINT ('', (9.18485099360515E-16, 15., 5.35175364266474));
#80 = (
   BOUNDED_CURVE ()
   B_SPLINE_CURVE (2, (#50, #60, #70), .UNSPECIFIED., .F., .U.)
   B_SPLINE_CURVE_WITH_KNOTS ((3, 3), (0., 1.5707963267949), .UNSPECIFIED.)
   CURVE ()
   GEOMETRIC_REPRESENTATION_ITEM ()
   RATIONAL_B_SPLINE_CURVE ((1., 0.707106781186548, 1.))
   REPRESENTATION_ITEM ('')
);
#90 = EDGE_CURVE ('', #20, #40, #80, .T.);
#100 = ORIENTED_EDGE ('', *, *, #90, .T.);
#110 = CARTESIAN_POINT ('', (-15., 1.83697019872103E-15, 5.35175364266474));
#120 = VERTEX_POINT ('', #110);
#130 = CARTESIAN_POINT ('', (9.18485099360515E-16, 15., 5.35175364266474));
#140 = CARTESIAN_POINT ('', (-15., 15., 5.35175364266474));
#150 = CARTESIAN_POINT ('', (-15., 1.83697019872103E-15, 5.35175364266474));
#160 = (
   BOUNDED_CURVE ()
   B_SPLINE_CURVE (2, (#130, #140, #150), .UNSPECIFIED., .F., .U.)
   B_SPLINE_CURVE_WITH_KNOTS ((3, 3), (1.5707963267949, 3.14159265358979), .UNSPECIFIED.)
   CURVE ()
   GEOMETRIC_REPRESENTATION_ITEM ()
   RATIONAL_B_SPLINE_CURVE ((1., 0.707106781186548, 1.))
   REPRESENTATION_ITEM ('')
);
#170 = EDGE_CURVE ('', #40, #120, #160, .T.);
#180 = ORIENTED_EDGE ('', *, *, #170, .T.);
#190 = CARTESIAN_POINT ('', (-15., 1.83697019872103E-15, 13.696837009778));
#200 = VERTEX_POINT ('', #190);
#210 = CARTESIAN_POINT ('', (-15., 1.83697019872103E-15, 5.35175364266474));
#220 = CARTESIAN_POINT ('', (-15., 1.83697019872103E-15, 13.696837009778));
#230 = B_SPLINE_CURVE_WITH_KNOTS ('', 1, (#210, #220), .UNSPECIFIED., .F., .U., (2, 2), (0., 1.), .UNSPECIFIED.);
#240 = EDGE_CURVE ('', #120, #200, #230, .T.);
#250 = ORIENTED_EDGE ('', *, *, #240, .T.);
#260 = CARTESIAN_POINT ('', (15., 0., 13.696837009778));
#270 = VERTEX_POINT ('', #260);
#280 = CARTESIAN_POINT ('', (15., 0., 13.696837009778));
#290 = CARTESIAN_POINT ('', (15., 15., 13.696837009778));
#300 = CARTESIAN_POINT ('', (9.18485099360515E-16, 15., 13.696837009778));
#310 = CARTESIAN_POINT ('', (-15., 15., 13.696837009778));
#320 = CARTESIAN_POINT ('', (-15., 1.83697019872103E-15, 13.696837009778));
#330 = (
   BOUNDED_CURVE ()
   B_SPLINE_CURVE (2, (#280, #290, #300, #310, #320), .UNSPECIFIED., .F., .U.)
   B_SPLINE_CURVE_WITH_KNOTS ((3, 2, 3), (0., 1.5707963267949, 3.14159265358979), .UNSPECIFIED.)
   CURVE ()
   GEOMETRIC_REPRESENTATION_ITEM ()
   RATIONAL_B_SPLINE_CURVE ((1., 0.707106781186548, 1., 0.707106781186548, 1.))
   REPRESENTATION_ITEM ('')
);
#340 = EDGE_CURVE ('', #270, #200, #330, .T.);
#350 = ORIENTED_EDGE ('', *, *, #340, .F.);
#360 = CARTESIAN_POINT ('', (15., 0., 5.35175364266474));
#370 = CARTESIAN_POINT ('', (15., 0., 13.696837009778));
#380 = B_SPLINE_CURVE_WITH_KNOTS ('', 1, (#360, #370), .UNSPECIFIED., .F., .U., (2, 2), (0., 1.), .UNSPECIFIED.);
#390 = EDGE_CURVE ('', #20, #270, #380, .T.);
#400 = ORIENTED_EDGE ('', *, *, #390, .F.);
#410 = EDGE_LOOP ('', (#100, #180, #250, #350, #400));
#420 = FACE_OUTER_BOUND ('', #410, .T.);
#430 = CARTESIAN_POINT ('', (1.77635683940025E-15, 2.66453525910038E-15, 5.35175364266474));
#440 = DIRECTION ('', (0., 0., 1.));
#450 = DIRECTION ('', (1., -1.77635683940025E-16, 0.));
#460 = AXIS2_PLACEMENT_3D ('', #430, #440, #450);
#470 = CYLINDRICAL_SURFACE ('', #460, 15.);
#480 = ADVANCED_FACE ('', (#420), #470, .T.);
#490 = CARTESIAN_POINT ('', (-15., 1.83697019872103E-15, 5.35175364266474));
#500 = CARTESIAN_POINT ('', (-15., -15., 5.35175364266474));
#510 = CARTESIAN_POINT ('', (-2.75545529808154E-15, -15., 5.35175364266474));
#520 = CARTESIAN_POINT ('', (15., -15., 5.35175364266474));
#530 = CARTESIAN_POINT ('', (15., -3.67394039744206E-15, 5.35175364266474));
#540 = (
   BOUNDED_CURVE ()
   B_SPLINE_CURVE (2, (#490, #500, #510, #520, #530), .UNSPECIFIED., .F., .U.)
   B_SPLINE_CURVE_WITH_KNOTS ((3, 2, 3), (3.14159265358979, 4.71238898038469, 6.28318530717959), .UNSPECIFIED.)
   CURVE ()
   GEOMETRIC_REPRESENTATION_ITEM ()
   RATIONAL_B_SPLINE_CURVE ((1., 0.707106781186548, 1., 0.707106781186548, 1.))
   REPRESENTATION_ITEM ('')
);
#550 = EDGE_CURVE ('', #120, #20, #540, .T.);
#560 = ORIENTED_EDGE ('', *, *, #550, .T.);
#570 = ORIENTED_EDGE ('', *, *, #390, .T.);
#580 = CARTESIAN_POINT ('', (-15., 1.83697019872103E-15, 13.696837009778));
#590 = CARTESIAN_POINT ('', (-15., -15., 13.696837009778));
#600 = CARTESIAN_POINT ('', (-2.75545529808154E-15, -15., 13.696837009778));
#610 = CARTESIAN_POINT ('', (15., -15., 13.696837009778));
#620 = CARTESIAN_POINT ('', (15., -3.67394039744206E-15, 13.696837009778));
#630 = (
   BOUNDED_CURVE ()
   B_SPLINE_CURVE (2, (#580, #590, #600, #610, #620), .UNSPECIFIED., .F., .U.)
   B_SPLINE_CURVE_WITH_KNOTS ((3, 2, 3), (3.14159265358979, 4.71238898038469, 6.28318530717959), .UNSPECIFIED.)
   CURVE ()
   GEOMETRIC_REPRESENTATION_ITEM ()
   RATIONAL_B_SPLINE_CURVE ((1., 0.707106781186548, 1., 0.707106781186548, 1.))
   REPRESENTATION_ITEM ('')
);
#640 = EDGE_CURVE ('', #200, #270, #630, .T.);
#650 = ORIENTED_EDGE ('', *, *, #640, .F.);
#660 = ORIENTED_EDGE ('', *, *, #240, .F.);
#670 = EDGE_LOOP ('', (#560, #570, #650, #660));
#680 = FACE_OUTER_BOUND ('', #670, .T.);
#690 = CARTESIAN_POINT ('', (3.5527136788005E-15, -8.88178419700125E-16, 5.35175364266474));
#700 = DIRECTION ('', (0., 0., 1.));
#710 = DIRECTION ('', (-1., 1.8167657456141E-16, 0.));
#720 = AXIS2_PLACEMENT_3D ('', #690, #700, #710);
#730 = CYLINDRICAL_SURFACE ('', #720, 15.);
#740 = ADVANCED_FACE ('', (#680), #730, .T.);
#750 = CARTESIAN_POINT ('', (0., 0., 0.));
#760 = VERTEX_POINT ('', #750);
#770 = CARTESIAN_POINT ('', (0., 0., 0.));
#780 = CARTESIAN_POINT ('', (0., 0.416915149542961, 0.));
#790 = CARTESIAN_POINT ('', (0., 1.14742423853574, 0.0213126381612189));
#800 = CARTESIAN_POINT ('', (0., 2.29480862022767, 0.113352715651673));
#810 = CARTESIAN_POINT ('', (0., 3.23245384344599, 0.236652162339178));
#820 = CARTESIAN_POINT ('', (0., 4.27523296987656, 0.419558679835836));
#830 = CARTESIAN_POINT ('', (0., 5.10927749742449, 0.60295652449318));
#840 = CARTESIAN_POINT ('', (0., 6.15200434632094, 0.878410408798414));
#850 = CARTESIAN_POINT ('', (0., 6.98596283191164, 1.13634805053092));
#860 = CARTESIAN_POINT ('', (0., 8.24361788168297, 1.58165927910937));
#870 = CARTESIAN_POINT ('', (0., 9.72077483563656, 2.19603507979991));
#880 = CARTESIAN_POINT ('', (0., 11.5998798982291, 3.15096670351188));
#890 = CARTESIAN_POINT ('', (0., 13.3667741142284, 4.21330076464695));
#900 = CARTESIAN_POINT ('', (0., 14.4885501805186, 4.98241364711089));
#910 = CARTESIAN_POINT ('', (0., 15., 5.35175364266474));
#920 = (
   BOUNDED_CURVE ()
   B_SPLINE_CURVE (3, (#770, #780, #790, #800, #810, #820, #830, #840, #850, #860, #870, #880, #890, #900, #910), .UNSPECIFIED., .F., .U.)
   B_SPLINE_CURVE_WITH_KNOTS ((4, 1, 1, 1, 1, 1, 1, 1, 1, 1, 1, 1, 4), (0., 0.0772229336017364, 0.13529774387756, 0.213150916576197, 0.252330313059097, 0.331359393653396, 0.371272812970192, 0.45206008007269, 0.492996507967444, 0.618353738996266, 0.748157976487724, 0.883147957209733, 1.), .UNSPECIFIED.)
   CURVE ()
   GEOMETRIC_REPRESENTATION_ITEM ()
   RATIONAL_B_SPLINE_CURVE ((1., 1., 1., 1., 1., 1., 1., 1., 1., 1., 1., 1., 1., 1., 1.))
   REPRESENTATION_ITEM ('')
);
#930 = EDGE_CURVE ('', #760, #40, #920, .T.);
#940 = ORIENTED_EDGE ('', *, *, #930, .T.);
#950 = ORIENTED_EDGE ('', *, *, #90, .F.);
#960 = ORIENTED_EDGE ('', *, *, #550, .F.);
#970 = ORIENTED_EDGE ('', *, *, #170, .F.);
#980 = ORIENTED_EDGE ('', *, *, #930, .F.);
#990 = EDGE_LOOP ('', (#940, #950, #960, #970, #980));
#1000 = FACE_OUTER_BOUND ('', #990, .T.);
#1010 = CARTESIAN_POINT ('', (0., 15., 5.35175364266474));
#1020 = CARTESIAN_POINT ('', (-15., 15., 5.35175364266474));
#1030 = CARTESIAN_POINT ('', (-15., 9.18485099360515E-16, 5.35175364266474));
#1040 = CARTESIAN_POINT ('', (-15., -15., 5.35175364266474));
#1050 = CARTESIAN_POINT ('', (-1.83697019872103E-15, -15., 5.35175364266474));
#1060 = CARTESIAN_POINT ('', (15., -15., 5.35175364266474));
#1070 = CARTESIAN_POINT ('', (15., -2.75545529808154E-15, 5.35175364266474));
#1080 = CARTESIAN_POINT ('', (15., 15., 5.35175364266474));
#1090 = CARTESIAN_POINT ('', (0., 15., 5.35175364266474));
#1100 = CARTESIAN_POINT ('', (0., 14.4885501805186, 4.98241364711089));
#1110 = CARTESIAN_POINT ('', (-14.4885501805186, 14.4885501805186, 4.98241364711089));
#1120 = CARTESIAN_POINT ('', (-14.4885501805186, 8.87167830142896E-16, 4.98241364711089));
#1130 = CARTESIAN_POINT ('', (-14.4885501805186, -14.4885501805186, 4.98241364711089));
#1140 = CARTESIAN_POINT ('', (-1.77433566028579E-15, -14.4885501805186, 4.98241364711089));
#1150 = CARTESIAN_POINT ('', (14.4885501805186, -14.4885501805186, 4.98241364711089));
#1160 = CARTESIAN_POINT ('', (14.4885501805186, -2.66150349042869E-15, 4.98241364711089));
#1170 = CARTESIAN_POINT ('', (14.4885501805186, 14.4885501805186, 4.98241364711089));
#1180 = CARTESIAN_POINT ('', (0., 14.4885501805186, 4.98241364711089));
#1190 = CARTESIAN_POINT ('', (0., 13.3667741142284, 4.21330076464695));
#1200 = CARTESIAN_POINT ('', (-13.3667741142284, 13.3667741142284, 4.21330076464695));
#1210 = CARTESIAN_POINT ('', (-13.3667741142284, 8.18478856695778E-16, 4.21330076464695));
#1220 = CARTESIAN_POINT ('', (-13.3667741142284, -13.3667741142284, 4.21330076464695));
#1230 = CARTESIAN_POINT ('', (-1.63695771339156E-15, -13.3667741142284, 4.21330076464695));
#1240 = CARTESIAN_POINT ('', (13.3667741142284, -13.3667741142284, 4.21330076464695));
#1250 = CARTESIAN_POINT ('', (13.3667741142284, -2.45543657008733E-15, 4.21330076464695));
#1260 = CARTESIAN_POINT ('', (13.3667741142284, 13.3667741142284, 4.21330076464695));
#1270 = CARTESIAN_POINT ('', (0., 13.3667741142284, 4.21330076464695));
#1280 = CARTESIAN_POINT ('', (0., 11.5998798982291, 3.15096670351188));
#1290 = CARTESIAN_POINT ('', (-11.5998798982291, 11.5998798982291, 3.15096670351188));
#1300 = CARTESIAN_POINT ('', (-11.5998798982291, 7.10287789392997E-16, 3.15096670351188));
#1310 = CARTESIAN_POINT ('', (-11.5998798982291, -11.5998798982291, 3.15096670351188));
#1320 = CARTESIAN_POINT ('', (-1.42057557878599E-15, -11.5998798982291, 3.15096670351188));
#1330 = CARTESIAN_POINT ('', (11.5998798982291, -11.5998798982291, 3.15096670351188));
#1340 = CARTESIAN_POINT ('', (11.5998798982291, -2.13086336817899E-15, 3.15096670351188));
#1350 = CARTESIAN_POINT ('', (11.5998798982291, 11.5998798982291, 3.15096670351188));
#1360 = CARTESIAN_POINT ('', (0., 11.5998798982291, 3.15096670351188));
#1370 = CARTESIAN_POINT ('', (0., 9.72077483563656, 2.19603507979991));
#1380 = CARTESIAN_POINT ('', (-9.72077483563656, 9.72077483563656, 2.19603507979991));
#1390 = CARTESIAN_POINT ('', (-9.72077483563656, 5.95225789384722E-16, 2.19603507979991));
#1400 = CARTESIAN_POINT ('', (-9.72077483563656, -9.72077483563656, 2.19603507979991));
#1410 = CARTESIAN_POINT ('', (-1.19045157876945E-15, -9.72077483563656, 2.19603507979991));
#1420 = CARTESIAN_POINT ('', (9.72077483563656, -9.72077483563656, 2.19603507979991));
#1430 = CARTESIAN_POINT ('', (9.72077483563656, -1.78567736815417E-15, 2.19603507979991));
#1440 = CARTESIAN_POINT ('', (9.72077483563656, 9.72077483563656, 2.19603507979991));
#1450 = CARTESIAN_POINT ('', (0., 9.72077483563656, 2.19603507979991));
#1460 = CARTESIAN_POINT ('', (0., 8.24361788168297, 1.58165927910937));
#1470 = CARTESIAN_POINT ('', (-8.24361788168297, 8.24361788168297, 1.58165927910937));
#1480 = CARTESIAN_POINT ('', (-8.24361788168297, 5.04776012609847E-16, 1.58165927910937));
#1490 = CARTESIAN_POINT ('', (-8.24361788168297, -8.24361788168297, 1.58165927910937));
#1500 = CARTESIAN_POINT ('', (-1.00955202521969E-15, -8.24361788168297, 1.58165927910937));
#1510 = CARTESIAN_POINT ('', (8.24361788168297, -8.24361788168297, 1.58165927910937));
#1520 = CARTESIAN_POINT ('', (8.24361788168297, -1.51432803782954E-15, 1.58165927910937));
#1530 = CARTESIAN_POINT ('', (8.24361788168297, 8.24361788168297, 1.58165927910937));
#1540 = CARTESIAN_POINT ('', (0., 8.24361788168297, 1.58165927910937));
#1550 = CARTESIAN_POINT ('', (0., 6.98596283191164, 1.13634805053092));
#1560 = CARTESIAN_POINT ('', (-6.98596283191164, 6.98596283191164, 1.13634805053092));
#1570 = CARTESIAN_POINT ('', (-6.98596283191164, 4.27766851053148E-16, 1.13634805053092));
#1580 = CARTESIAN_POINT ('', (-6.98596283191164, -6.98596283191164, 1.13634805053092));
#1590 = CARTESIAN_POINT ('', (-8.55533702106297E-16, -6.98596283191164, 1.13634805053092));
#1600 = CARTESIAN_POINT ('', (6.98596283191164, -6.98596283191164, 1.13634805053092));
#1610 = CARTESIAN_POINT ('', (6.98596283191164, -1.28330055315945E-15, 1.13634805053092));
#1620 = CARTESIAN_POINT ('', (6.98596283191164, 6.98596283191164, 1.13634805053092));
#1630 = CARTESIAN_POINT ('', (0., 6.98596283191164, 1.13634805053092));
#1640 = CARTESIAN_POINT ('', (0., 6.15200434632094, 0.878410408798414));
#1650 = CARTESIAN_POINT ('', (-6.15200434632094, 6.15200434632094, 0.878410408798414));
#1660 = CARTESIAN_POINT ('', (-6.15200434632094, 3.76701621553127E-16, 0.878410408798414));
#1670 = CARTESIAN_POINT ('', (-6.15200434632094, -6.15200434632094, 0.878410408798414));
#1680 = CARTESIAN_POINT ('', (-7.53403243106254E-16, -6.15200434632094, 0.878410408798414));
#1690 = CARTESIAN_POINT ('', (6.15200434632094, -6.15200434632094, 0.878410408798414));
#1700 = CARTESIAN_POINT ('', (6.15200434632094, -1.13010486465938E-15, 0.878410408798414));
#1710 = CARTESIAN_POINT ('', (6.15200434632094, 6.15200434632094, 0.878410408798414));
#1720 = CARTESIAN_POINT ('', (0., 6.15200434632094, 0.878410408798414));
#1730 = CARTESIAN_POINT ('', (0., 5.10927749742449, 0.60295652449318));
#1740 = CARTESIAN_POINT ('', (-5.10927749742449, 5.10927749742449, 0.60295652449318));
#1750 = CARTESIAN_POINT ('', (-5.10927749742449, 3.12853016658825E-16, 0.60295652449318));
#1760 = CARTESIAN_POINT ('', (-5.10927749742449, -5.10927749742449, 0.60295652449318));
#1770 = CARTESIAN_POINT ('', (-6.2570603331765E-16, -5.10927749742449, 0.60295652449318));
#1780 = CARTESIAN_POINT ('', (5.10927749742449, -5.10927749742449, 0.60295652449318));
#1790 = CARTESIAN_POINT ('', (5.10927749742449, -9.38559049976475E-16, 0.60295652449318));
#1800 = CARTESIAN_POINT ('', (5.10927749742449, 5.10927749742449, 0.60295652449318));
#1810 = CARTESIAN_POINT ('', (0., 5.10927749742449, 0.60295652449318));
#1820 = CARTESIAN_POINT ('', (0., 4.27523296987656, 0.419558679835836));
#1830 = CARTESIAN_POINT ('', (-4.27523296987656, 4.27523296987656, 0.419558679835836));
#1840 = CARTESIAN_POINT ('', (-4.27523296987656, 2.61782518608428E-16, 0.419558679835836));
#1850 = CARTESIAN_POINT ('', (-4.27523296987656, -4.27523296987656, 0.419558679835836));
#1860 = CARTESIAN_POINT ('', (-5.23565037216857E-16, -4.27523296987656, 0.419558679835836));
#1870 = CARTESIAN_POINT ('', (4.27523296987656, -4.27523296987656, 0.419558679835836));
#1880 = CARTESIAN_POINT ('', (4.27523296987656, -7.85347555825285E-16, 0.419558679835836));
#1890 = CARTESIAN_POINT ('', (4.27523296987656, 4.27523296987656, 0.419558679835836));
#1900 = CARTESIAN_POINT ('', (0., 4.27523296987656, 0.419558679835836));
#1910 = CARTESIAN_POINT ('', (0., 3.23245384344599, 0.236652162339178));
#1920 = CARTESIAN_POINT ('', (-3.23245384344599, 3.23245384344599, 0.236652162339178));
#1930 = CARTESIAN_POINT ('', (-3.23245384344599, 1.97930712638385E-16, 0.236652162339178));
#1940 = CARTESIAN_POINT ('', (-3.23245384344599, -3.23245384344599, 0.236652162339178));
#1950 = CARTESIAN_POINT ('', (-3.95861425276769E-16, -3.23245384344599, 0.236652162339178));
#1960 = CARTESIAN_POINT ('', (3.23245384344599, -3.23245384344599, 0.236652162339178));
#1970 = CARTESIAN_POINT ('', (3.23245384344599, -5.93792137915154E-16, 0.236652162339178));
#1980 = CARTESIAN_POINT ('', (3.23245384344599, 3.23245384344599, 0.236652162339178));
#1990 = CARTESIAN_POINT ('', (0., 3.23245384344599, 0.236652162339178));
#2000 = CARTESIAN_POINT ('', (0., 2.29480862022767, 0.113352715651673));
#2010 = CARTESIAN_POINT ('', (-2.29480862022767, 2.29480862022767, 0.113352715651673));
#2020 = CARTESIAN_POINT ('', (-2.29480862022767, 1.40516501570878E-16, 0.113352715651673));
#2030 = CARTESIAN_POINT ('', (-2.29480862022767, -2.29480862022767, 0.113352715651673));
#2040 = CARTESIAN_POINT ('', (-2.81033003141757E-16, -2.29480862022767, 0.113352715651673));
#2050 = CARTESIAN_POINT ('', (2.29480862022767, -2.29480862022767, 0.113352715651673));
#2060 = CARTESIAN_POINT ('', (2.29480862022767, -4.21549504712635E-16, 0.113352715651673));
#2070 = CARTESIAN_POINT ('', (2.29480862022767, 2.29480862022767, 0.113352715651673));
#2080 = CARTESIAN_POINT ('', (0., 2.29480862022767, 0.113352715651673));
#2090 = CARTESIAN_POINT ('', (0., 1.14742423853574, 0.0213126381612189));
#2100 = CARTESIAN_POINT ('', (-1.14742423853574, 1.14742423853574, 0.0213126381612189));
#2110 = CARTESIAN_POINT ('', (-1.14742423853574, 7.02594710493442E-17, 0.0213126381612189));
#2120 = CARTESIAN_POINT ('', (-1.14742423853574, -1.14742423853574, 0.0213126381612189));
#2130 = CARTESIAN_POINT ('', (-1.40518942098688E-16, -1.14742423853574, 0.0213126381612189));
#2140 = CARTESIAN_POINT ('', (1.14742423853574, -1.14742423853574, 0.0213126381612189));
#2150 = CARTESIAN_POINT ('', (1.14742423853574, -2.10778413148033E-16, 0.0213126381612189));
#2160 = CARTESIAN_POINT ('', (1.14742423853574, 1.14742423853574, 0.0213126381612189));
#2170 = CARTESIAN_POINT ('', (0., 1.14742423853574, 0.0213126381612189));
#2180 = CARTESIAN_POINT ('', (0., 0.416915149542961, 0.));
#2190 = CARTESIAN_POINT ('', (-0.416915149542961, 0.416915149542961, 0.));
#2200 = CARTESIAN_POINT ('', (-0.416915149542961, 2.55286901701914E-17, 0.));
#2210 = CARTESIAN_POINT ('', (-0.416915149542961, -0.416915149542961, 0.));
#2220 = CARTESIAN_POINT ('', (-5.10573803403828E-17, -0.416915149542961, 0.));
#2230 = CARTESIAN_POINT ('', (0.416915149542961, -0.416915149542961, 0.));
#2240 = CARTESIAN_POINT ('', (0.416915149542961, -7.65860705105742E-17, 0.));
#2250 = CARTESIAN_POINT ('', (0.416915149542961, 0.416915149542961, 0.));
#2260 = CARTESIAN_POINT ('', (0., 0.416915149542961, 0.));
#2270 = CARTESIAN_POINT ('', (0., 0., 0.));
#2280 = CARTESIAN_POINT ('', (0., 0., 0.));
#2290 = CARTESIAN_POINT ('', (0., 0., 0.));
#2300 = CARTESIAN_POINT ('', (0., 0., 0.));
#2310 = CARTESIAN_POINT ('', (0., 0., 0.));
#2320 = CARTESIAN_POINT ('', (0., 0., 0.));
#2330 = CARTESIAN_POINT ('', (0., 0., 0.));
#2340 = CARTESIAN_POINT ('', (0., 0., 0.));
#2350 = CARTESIAN_POINT ('', (0., 0., 0.));
#2360 = (
   BOUNDED_SURFACE ()
   B_SPLINE_SURFACE (3, 2, ((#1010, #1020, #1030, #1040, #1050, #1060, #1070, #1080, #1090), (#1100, #1110, #1120, #1130, #1140, #1150, #1160, #1170, #1180), (#1190, #1200, #1210, #1220, #1230, #1240, #1250, #1260, #1270), (#1280, #1290, #1300, #1310, #1320, #1330, #1340, #1350, #1360), (#1370, #1380, #1390, #1400, #1410, #1420, #1430, #1440, #1450), (#1460, #1470, #1480, #1490, #1500, #1510, #1520, #1530, #1540), (#1550, #1560, #1570, #1580, #1590, #1600, #1610, #1620, #1630), (#1640, #1650, #1660, #1670, #1680, #1690, #1700, #1710, #1720), (#1730, #1740, #1750, #1760, #1770, #1780, #1790, #1800, #1810), (#1820, #1830, #1840, #1850, #1860, #1870, #1880, #1890, #1900), (#1910, #1920, #1930, #1940, #1950, #1960, #1970, #1980, #1990), (#2000, #2010, #2020, #2030, #2040, #2050, #2060, #2070, #2080), (#2090, #2100, #2110, #2120, #2130, #2140, #2150, #2160, #2170), (#2180, #2190, #2200, #2210, #2220, #2230, #2240, #2250, #2260), (#2270, #2280, #2290, #2300, #2310, #2320, #2330, #2340, #2350)), .UNSPECIFIED., .F., .T., .U.)
   B_SPLINE_SURFACE_WITH_KNOTS ((4, 1, 1, 1, 1, 1, 1, 1, 1, 1, 1, 1, 4), (3, 2, 2, 2, 3), (0., 0.116852042790267, 0.251842023512276, 0.381646261003734, 0.507003492032556, 0.54793991992731, 0.628727187029808, 0.668640606346604, 0.747669686940903, 0.786849083423803, 0.86470225612244, 0.922777066398264, 1.), (0., 90., 180., 270., 360.), .UNSPECIFIED.)
   SURFACE ()
   GEOMETRIC_REPRESENTATION_ITEM ()
   RATIONAL_B_SPLINE_SURFACE (((1., 0.707106781186548, 1., 0.707106781186548, 1., 0.707106781186548, 1., 0.707106781186548, 1.), (1., 0.707106781186548, 1., 0.707106781186548, 1., 0.707106781186548, 1., 0.707106781186548, 1.), (1., 0.707106781186548, 1., 0.707106781186548, 1., 0.707106781186548, 1., 0.707106781186548, 1.), (1., 0.707106781186548, 1., 0.707106781186548, 1., 0.707106781186548, 1., 0.707106781186548, 1.), (1., 0.707106781186548, 1., 0.707106781186548, 1., 0.707106781186548, 1., 0.707106781186548, 1.), (1., 0.707106781186548, 1., 0.707106781186548, 1., 0.707106781186548, 1., 0.707106781186548, 1.), (1., 0.707106781186548, 1., 0.707106781186548, 1., 0.707106781186548, 1., 0.707106781186548, 1.), (1., 0.707106781186548, 1., 0.707106781186548, 1., 0.707106781186548, 1., 0.707106781186548, 1.), (1., 0.707106781186548, 1., 0.707106781186548, 1., 0.707106781186548, 1., 0.707106781186548, 1.), (1., 0.707106781186548, 1., 0.707106781186548, 1., 0.707106781186548, 1., 0.707106781186548, 1.), (1., 0.707106781186548, 1., 0.707106781186548, 1., 0.707106781186548, 1., 0.707106781186548, 1.), (1., 0.707106781186548, 1., 0.707106781186548, 1., 0.707106781186548, 1., 0.707106781186548, 1.), (1., 0.707106781186548, 1., 0.707106781186548, 1., 0.707106781186548, 1., 0.707106781186548, 1.), (1., 0.707106781186548, 1., 0.707106781186548, 1., 0.707106781186548, 1., 0.707106781186548, 1.), (1., 0.707106781186548, 1., 0.707106781186548, 1., 0.707106781186548, 1., 0.707106781186548, 1.)))
   REPRESENTATION_ITEM ('')
);
#2370 = ADVANCED_FACE ('', (#1000), #2360, .T.);
#2380 = ORIENTED_EDGE ('', *, *, #340, .T.);
#2390 = ORIENTED_EDGE ('', *, *, #640, .T.);
#2400 = EDGE_LOOP ('', (#2380, #2390));
#2410 = FACE_OUTER_BOUND ('', #2400, .T.);
#2420 = CARTESIAN_POINT ('', (-7.105427357601E-15, 7.105427357601E-15, -71.9800000000281));
#2430 = DIRECTION ('', (-1., 0., 0.));
#2440 = DIRECTION ('', (0., -1., 3.340834213362E-16));
#2450 = AXIS2_PLACEMENT_3D ('', #2420, #2430, #2440);
#2460 = SPHERICAL_SURFACE ('', #2450, 86.980000000028);
#2470 = ADVANCED_FACE ('', (#2410), #2460, .T.);
#2480 = CLOSED_SHELL ('', (#480, #740, #2370, #2470));
#2490 = MANIFOLD_SOLID_BREP ('', #2480);
#2500 = (
   LENGTH_UNIT ()
   NAMED_UNIT (*)
   SI_UNIT (.MILLI., .METRE.)
);
#2510 = (
   NAMED_UNIT (*)
   SI_UNIT ($, .STERADIAN.)
   SOLID_ANGLE_UNIT ()
);
#2520 = (
   NAMED_UNIT (*)
   SI_UNIT ($, .RADIAN.)
   PLANE_ANGLE_UNIT ()
);
#2530 = UNCERTAINTY_MEASURE_WITH_UNIT (LENGTH_MEASURE(0.0001), #2500, 'DISTANCE_ACCURACY_VALUE', '');
#2540 = (
   GEOMETRIC_REPRESENTATION_CONTEXT (3)
   GLOBAL_UNCERTAINTY_ASSIGNED_CONTEXT ((#2530))
   GLOBAL_UNIT_ASSIGNED_CONTEXT ((#2500, #2510, #2520))
   REPRESENTATION_CONTEXT ('', '3D')
);
#2550 = ADVANCED_BREP_SHAPE_REPRESENTATION ('', (#2490), #2540);
#2560 = APPLICATION_CONTEXT ('configuration controlled 3D designs of mechanical parts and assemblies');
#2570 = APPLICATION_PROTOCOL_DEFINITION ('International Standard', 'config_control_design', 1997, #2560);
#2580 = MECHANICAL_CONTEXT ('', #2560, 'mechanical');
#2590 = PRODUCT ('product-name', '', '', (#2580));
#2600 = PERSON_AND_ORGANIZATION_ROLE ('design_owner');
#2610 = PERSON ('', '', $, $, $, $);
#2620 = ORGANIZATION ($, '', '');
#2630 = PERSON_AND_ORGANIZATION (#2610, #2620);
#2640 = CC_DESIGN_PERSON_AND_ORGANIZATION_ASSIGNMENT (#2630, #2600, (#2590));
#2650 = PRODUCT_RELATED_PRODUCT_CATEGORY ('detail', $, (#2590));
#2660 = PRODUCT_DEFINITION_FORMATION_WITH_SPECIFIED_SOURCE ('', '', #2590, .NOT_KNOWN.);
#2670 = APPROVAL_STATUS ('approved');
#2680 = APPROVAL (#2670, '');
#2690 = CALENDAR_DATE (2013, 11, 4);
#2700 = COORDINATED_UNIVERSAL_TIME_OFFSET (0, $, .AHEAD.);
#2710 = LOCAL_TIME (16, 20, 48., #2700);
#2720 = DATE_AND_TIME (#2690, #2710);
#2730 = APPROVAL_DATE_TIME (#2720, #2680);
#2740 = APPROVAL_ROLE ('');
#2750 = PERSON ('', '', $, $, $, $);
#2760 = ORGANIZATION ($, '', '');
#2770 = PERSON_AND_ORGANIZATION (#2750, #2760);
#2780 = APPROVAL_PERSON_ORGANIZATION (#2770, #2680, #2740);
#2790 = CC_DESIGN_APPROVAL (#2680, (#2660));
#2800 = PERSON_AND_ORGANIZATION_ROLE ('creator');
#2810 = PERSON ('', '', $, $, $, $);
#2820 = ORGANIZATION ($, '', '');
#2830 = PERSON_AND_ORGANIZATION (#2810, #2820);
#2840 = CC_DESIGN_PERSON_AND_ORGANIZATION_ASSIGNMENT (#2830, #2800, (#2660));
#2850 = PERSON_AND_ORGANIZATION_ROLE ('part_supplier');
#2860 = PERSON ('', '', $, $, $, $);
#2870 = ORGANIZATION ($, '', '');
#2880 = PERSON_AND_ORGANIZATION (#2860, #2870);
#2890 = CC_DESIGN_PERSON_AND_ORGANIZATION_ASSIGNMENT (#2880, #2850, (#2660));
#2900 = SECURITY_CLASSIFICATION_LEVEL ('unclassified');
#2910 = SECURITY_CLASSIFICATION ('', '', #2900);
#2920 = APPROVAL_STATUS ('approved');
#2930 = APPROVAL (#2920, '');
#2940 = CALENDAR_DATE (2013, 11, 4);
#2950 = COORDINATED_UNIVERSAL_TIME_OFFSET (0, $, .AHEAD.);
#2960 = LOCAL_TIME (16, 20, 48., #2950);
#2970 = DATE_AND_TIME (#2940, #2960);
#2980 = APPROVAL_DATE_TIME (#2970, #2930);
#2990 = APPROVAL_ROLE ('');
#3000 = PERSON ('', '', $, $, $, $);
#3010 = ORGANIZATION ($, '', '');
#3020 = PERSON_AND_ORGANIZATION (#3000, #3010);
#3030 = APPROVAL_PERSON_ORGANIZATION (#3020, #2930, #2990);
#3040 = CC_DESIGN_APPROVAL (#2930, (#2910));
#3050 = DATE_TIME_ROLE ('classification_date');
#3060 = CALENDAR_DATE (2013, 11, 4);
#3070 = COORDINATED_UNIVERSAL_TIME_OFFSET (0, $, .AHEAD.);
#3080 = LOCAL_TIME (16, 20, 48., #3070);
#3090 = DATE_AND_TIME (#3060, #3080);
#3100 = CC_DESIGN_DATE_AND_TIME_ASSIGNMENT (#3090, #3050, (#2910));
#3110 = PERSON_AND_ORGANIZATION_ROLE ('classification_officer');
#3120 = PERSON ('', '', $, $, $, $);
#3130 = ORGANIZATION ($, '', '');
#3140 = PERSON_AND_ORGANIZATION (#3120, #3130);
#3150 = CC_DESIGN_PERSON_AND_ORGANIZATION_ASSIGNMENT (#3140, #3110, (#2910));
#3160 = CC_DESIGN_SECURITY_CLASSIFICATION (#2910, (#2660));
#3170 = DESIGN_CONTEXT ('', #2560, 'design');
#3180 = PRODUCT_DEFINITION ('', '', #2660, #3170);
#3190 = APPROVAL_STATUS ('approved');
#3200 = APPROVAL (#3190, '');
#3210 = CALENDAR_DATE (2013, 11, 4);
#3220 = COORDINATED_UNIVERSAL_TIME_OFFSET (0, $, .AHEAD.);
#3230 = LOCAL_TIME (16, 20, 48., #3220);
#3240 = DATE_AND_TIME (#3210, #3230);
#3250 = APPROVAL_DATE_TIME (#3240, #3200);
#3260 = APPROVAL_ROLE ('');
#3270 = PERSON ('', '', $, $, $, $);
#3280 = ORGANIZATION ($, '', '');
#3290 = PERSON_AND_ORGANIZATION (#3270, #3280);
#3300 = APPROVAL_PERSON_ORGANIZATION (#3290, #3200, #3260);
#3310 = CC_DESIGN_APPROVAL (#3200, (#3180));
#3320 = DATE_TIME_ROLE ('creation_date');
#3330 = CALENDAR_DATE (2013, 11, 4);
#3340 = COORDINATED_UNIVERSAL_TIME_OFFSET (0, $, .AHEAD.);
#3350 = LOCAL_TIME (16, 20, 48., #3340);
#3360 = DATE_AND_TIME (#3330, #3350);
#3370 = CC_DESIGN_DATE_AND_TIME_ASSIGNMENT (#3360, #3320, (#3180));
#3380 = PERSON_AND_ORGANIZATION_ROLE ('creator');
#3390 = PERSON ('', '', $, $, $, $);
#3400 = ORGANIZATION ($, '', '');
#3410 = PERSON_AND_ORGANIZATION (#3390, #3400);
#3420 = CC_DESIGN_PERSON_AND_ORGANIZATION_ASSIGNMENT (#3410, #3380, (#3180));
#3430 = PRODUCT_DEFINITION_SHAPE ('', '', #3180);
#3440 = SHAPE_DEFINITION_REPRESENTATION (#3430, #2550);
ENDSEC;
END-ISO-10303-21;
