ISO-10303-21;
HEADER;
FILE_DESCRIPTION ((), '1');
FILE_NAME ('\\\\so-file-01\\Profiles\\halbhuber\\Desktop\\S1ADX0260.STP', '2019-10-29T12:13:12', ('Unknown'), ('Unknown'), 'HarmonyWare STEP v2.0.6', 'HarmonyWare Translators', '');
FILE_SCHEMA (('CONFIG_CONTROL_DESIGN'));
ENDSEC;

DATA;
#1 = CARTESIAN_POINT ('', (15., 0., 8.53355573127736));
#2 = VERTEX_POINT ('', #1);
#3 = CARTESIAN_POINT ('', (9.18485099360515E-16, 15., 8.53355573127736));
#4 = VERTEX_POINT ('', #3);
#5 = CARTESIAN_POINT ('', (15., 0., 8.53355573127736));
#6 = CARTESIAN_POINT ('', (15., 15., 8.53355573127736));
#7 = CARTESIAN_POINT ('', (9.18485099360515E-16, 15., 8.53355573127736));
#8 = (
   BOUNDED_CURVE ()
   B_SPLINE_CURVE (2, (#5, #6, #7), .UNSPECIFIED., .F., .U.)
   B_SPLINE_CURVE_WITH_KNOTS ((3, 3), (0., 1.5707963267949), .UNSPECIFIED.)
   CURVE ()
   GEOMETRIC_REPRESENTATION_ITEM ()
   RATIONAL_B_SPLINE_CURVE ((1., 0.707106781186548, 1.))
   REPRESENTATION_ITEM ('')
);
#9 = EDGE_CURVE ('', #2, #4, #8, .T.);
#10 = ORIENTED_EDGE ('', *, *, #9, .T.);
#11 = CARTESIAN_POINT ('', (-15., 1.83697019872103E-15, 8.53355573127736));
#12 = VERTEX_POINT ('', #11);
#13 = CARTESIAN_POINT ('', (9.18485099360515E-16, 15., 8.53355573127736));
#14 = CARTESIAN_POINT ('', (-15., 15., 8.53355573127736));
#15 = CARTESIAN_POINT ('', (-15., 1.83697019872103E-15, 8.53355573127736));
#16 = (
   BOUNDED_CURVE ()
   B_SPLINE_CURVE (2, (#13, #14, #15), .UNSPECIFIED., .F., .U.)
   B_SPLINE_CURVE_WITH_KNOTS ((3, 3), (1.5707963267949, 3.14159265358979), .UNSPECIFIED.)
   CURVE ()
   GEOMETRIC_REPRESENTATION_ITEM ()
   RATIONAL_B_SPLINE_CURVE ((1., 0.707106781186548, 1.))
   REPRESENTATION_ITEM ('')
);
#17 = EDGE_CURVE ('', #4, #12, #16, .T.);
#18 = ORIENTED_EDGE ('', *, *, #17, .T.);
#19 = CARTESIAN_POINT ('', (-15., 1.83697019872103E-15, 15.548115565993));
#20 = VERTEX_POINT ('', #19);
#21 = CARTESIAN_POINT ('', (-15., 1.83697019872103E-15, 8.53355573127736));
#22 = CARTESIAN_POINT ('', (-15., 1.83697019872103E-15, 15.548115565993));
#23 = B_SPLINE_CURVE_WITH_KNOTS ('', 1, (#21, #22), .UNSPECIFIED., .F., .U., (2, 2), (0., 1.), .UNSPECIFIED.);
#24 = EDGE_CURVE ('', #12, #20, #23, .T.);
#25 = ORIENTED_EDGE ('', *, *, #24, .T.);
#26 = CARTESIAN_POINT ('', (15., 0., 15.548115565993));
#27 = VERTEX_POINT ('', #26);
#28 = CARTESIAN_POINT ('', (15., 0., 15.548115565993));
#29 = CARTESIAN_POINT ('', (15., 15., 15.548115565993));
#30 = CARTESIAN_POINT ('', (9.18485099360515E-16, 15., 15.548115565993));
#31 = CARTESIAN_POINT ('', (-15., 15., 15.548115565993));
#32 = CARTESIAN_POINT ('', (-15., 1.83697019872103E-15, 15.548115565993));
#33 = (
   BOUNDED_CURVE ()
   B_SPLINE_CURVE (2, (#28, #29, #30, #31, #32), .UNSPECIFIED., .F., .U.)
   B_SPLINE_CURVE_WITH_KNOTS ((3, 2, 3), (0., 1.5707963267949, 3.14159265358979), .UNSPECIFIED.)
   CURVE ()
   GEOMETRIC_REPRESENTATION_ITEM ()
   RATIONAL_B_SPLINE_CURVE ((1., 0.707106781186548, 1., 0.707106781186548, 1.))
   REPRESENTATION_ITEM ('')
);
#34 = EDGE_CURVE ('', #27, #20, #33, .T.);
#35 = ORIENTED_EDGE ('', *, *, #34, .F.);
#36 = CARTESIAN_POINT ('', (15., 0., 8.53355573127736));
#37 = CARTESIAN_POINT ('', (15., 0., 15.548115565993));
#38 = B_SPLINE_CURVE_WITH_KNOTS ('', 1, (#36, #37), .UNSPECIFIED., .F., .U., (2, 2), (0., 1.), .UNSPECIFIED.);
#39 = EDGE_CURVE ('', #2, #27, #38, .T.);
#40 = ORIENTED_EDGE ('', *, *, #39, .F.);
#41 = EDGE_LOOP ('', (#10, #18, #25, #35, #40));
#42 = FACE_OUTER_BOUND ('', #41, .T.);
#43 = CARTESIAN_POINT ('', (0., -4.44089209850063E-15, 8.53355573127736));
#44 = DIRECTION ('', (6.6589992688716E-47, -2.24920999694629E-31, 1.));
#45 = DIRECTION ('', (1., 2.96059473233375E-16, 0.));
#46 = AXIS2_PLACEMENT_3D ('', #43, #44, #45);
#47 = CYLINDRICAL_SURFACE ('', #46, 15.);
#48 = ADVANCED_FACE ('', (#42), #47, .T.);
#49 = CARTESIAN_POINT ('', (-15., 1.83697019872103E-15, 8.53355573127736));
#50 = CARTESIAN_POINT ('', (-15., -15., 8.53355573127736));
#51 = CARTESIAN_POINT ('', (-2.75545529808154E-15, -15., 8.53355573127736));
#52 = CARTESIAN_POINT ('', (15., -15., 8.53355573127736));
#53 = CARTESIAN_POINT ('', (15., -3.67394039744206E-15, 8.53355573127736));
#54 = (
   BOUNDED_CURVE ()
   B_SPLINE_CURVE (2, (#49, #50, #51, #52, #53), .UNSPECIFIED., .F., .U.)
   B_SPLINE_CURVE_WITH_KNOTS ((3, 2, 3), (3.14159265358979, 4.71238898038469, 6.28318530717959), .UNSPECIFIED.)
   CURVE ()
   GEOMETRIC_REPRESENTATION_ITEM ()
   RATIONAL_B_SPLINE_CURVE ((1., 0.707106781186548, 1., 0.707106781186548, 1.))
   REPRESENTATION_ITEM ('')
);
#55 = EDGE_CURVE ('', #12, #2, #54, .T.);
#56 = ORIENTED_EDGE ('', *, *, #55, .T.);
#57 = ORIENTED_EDGE ('', *, *, #39, .T.);
#58 = CARTESIAN_POINT ('', (-15., 1.83697019872103E-15, 15.548115565993));
#59 = CARTESIAN_POINT ('', (-15., -15., 15.548115565993));
#60 = CARTESIAN_POINT ('', (-2.75545529808154E-15, -15., 15.548115565993));
#61 = CARTESIAN_POINT ('', (15., -15., 15.548115565993));
#62 = CARTESIAN_POINT ('', (15., -3.67394039744206E-15, 15.548115565993));
#63 = (
   BOUNDED_CURVE ()
   B_SPLINE_CURVE (2, (#58, #59, #60, #61, #62), .UNSPECIFIED., .F., .U.)
   B_SPLINE_CURVE_WITH_KNOTS ((3, 2, 3), (3.14159265358979, 4.71238898038469, 6.28318530717959), .UNSPECIFIED.)
   CURVE ()
   GEOMETRIC_REPRESENTATION_ITEM ()
   RATIONAL_B_SPLINE_CURVE ((1., 0.707106781186548, 1., 0.707106781186548, 1.))
   REPRESENTATION_ITEM ('')
);
#64 = EDGE_CURVE ('', #20, #27, #63, .T.);
#65 = ORIENTED_EDGE ('', *, *, #64, .F.);
#66 = ORIENTED_EDGE ('', *, *, #24, .F.);
#67 = EDGE_LOOP ('', (#56, #57, #65, #66));
#68 = FACE_OUTER_BOUND ('', #67, .T.);
#69 = CARTESIAN_POINT ('', (0., 3.5527136788005E-15, 8.53355573127736));
#70 = DIRECTION ('', (0., 0., 1.));
#71 = DIRECTION ('', (-1., -1.14382898671965E-16, 0.));
#72 = AXIS2_PLACEMENT_3D ('', #69, #70, #71);
#73 = CYLINDRICAL_SURFACE ('', #72, 15.);
#74 = ADVANCED_FACE ('', (#68), #73, .T.);
#75 = CARTESIAN_POINT ('', (0., 0., 5.));
#76 = VERTEX_POINT ('', #75);
#77 = CARTESIAN_POINT ('', (0., 0., 5.));
#78 = CARTESIAN_POINT ('', (-1.57772181044202E-30, 0.72974042216431, 5.));
#79 = CARTESIAN_POINT ('', (1.57772181044202E-30, 2.08758480215167, 5.04634600558478));
#80 = CARTESIAN_POINT ('', (0., 4.06947130395723, 5.23959016784466));
#81 = CARTESIAN_POINT ('', (0., 5.94756302890179, 5.53298855988325));
#82 = CARTESIAN_POINT ('', (0., 7.82552391613309, 5.93715504697734));
#83 = CARTESIAN_POINT ('', (0., 9.70331262161984, 6.45274007639786));
#84 = CARTESIAN_POINT ('', (0., 11.5808871097171, 7.08048747178924));
#85 = CARTESIAN_POINT ('', (-1.57772181044202E-30, 13.3505855451598, 7.77871065107575));
#86 = CARTESIAN_POINT ('', (0., 14.4842158139148, 8.28870139531529));
#87 = CARTESIAN_POINT ('', (1.57772181044202E-30, 15., 8.53355573127736));
#88 = B_SPLINE_CURVE_WITH_KNOTS ('', 3, (#77, #78, #79, #80, #81, #82, #83, #84, #85, #86, #87), .UNSPECIFIED., .F., .U., (4, 1, 1, 1, 1, 1, 1, 1, 4), (0., 0.140882833575568, 0.262133995573642, 0.384273690572813, 0.507708681153156, 0.632841387764946, 0.760067488690669, 0.889772540832135, 1.), .UNSPECIFIED.);
#89 = EDGE_CURVE ('', #76, #4, #88, .T.);
#90 = ORIENTED_EDGE ('', *, *, #89, .T.);
#91 = ORIENTED_EDGE ('', *, *, #9, .F.);
#92 = ORIENTED_EDGE ('', *, *, #55, .F.);
#93 = ORIENTED_EDGE ('', *, *, #17, .F.);
#94 = ORIENTED_EDGE ('', *, *, #89, .F.);
#95 = EDGE_LOOP ('', (#90, #91, #92, #93, #94));
#96 = FACE_OUTER_BOUND ('', #95, .T.);
#97 = CARTESIAN_POINT ('', (1.57772181044202E-30, 15., 8.53355573127736));
#98 = CARTESIAN_POINT ('', (-15., 15., 8.53355573127736));
#99 = CARTESIAN_POINT ('', (-15., 1.3519516428856E-14, 8.53355573127736));
#100 = CARTESIAN_POINT ('', (-15., -15., 8.53355573127736));
#101 = CARTESIAN_POINT ('', (-2.3153252271524E-14, -15., 8.53355573127736));
#102 = CARTESIAN_POINT ('', (15., -15., 8.53355573127736));
#103 = CARTESIAN_POINT ('', (15., -1.1470706041389E-14, 8.53355573127736));
#104 = CARTESIAN_POINT ('', (15., 15., 8.53355573127736));
#105 = CARTESIAN_POINT ('', (1.57772181044202E-30, 15., 8.53355573127736));
#106 = CARTESIAN_POINT ('', (0., 14.4842158139148, 8.28870139531529));
#107 = CARTESIAN_POINT ('', (-14.4842158139148, 14.4842158139148, 8.28870139531529));
#108 = CARTESIAN_POINT ('', (-14.4842158139148, 1.3487933756229E-14, 8.28870139531529));
#109 = CARTESIAN_POINT ('', (-14.4842158139148, -14.4842158139147, 8.28870139531529));
#110 = CARTESIAN_POINT ('', (-2.309008692627E-14, -14.4842158139148, 8.28870139531529));
#111 = CARTESIAN_POINT ('', (14.4842158139147, -14.4842158139148, 8.28870139531529));
#112 = CARTESIAN_POINT ('', (14.4842158139147, -1.1375958023508E-14, 8.28870139531529));
#113 = CARTESIAN_POINT ('', (14.4842158139148, 14.4842158139147, 8.28870139531529));
#114 = CARTESIAN_POINT ('', (0., 14.4842158139148, 8.28870139531529));
#115 = CARTESIAN_POINT ('', (-1.57772181044202E-30, 13.3505855451598, 7.77871065107575));
#116 = CARTESIAN_POINT ('', (-13.3505855451598, 13.3505855451598, 7.77871065107575));
#117 = CARTESIAN_POINT ('', (-13.3505855451598, 1.34185189222267E-14, 7.77871065107575));
#118 = CARTESIAN_POINT ('', (-13.3505855451598, -13.3505855451597, 7.77871065107575));
#119 = CARTESIAN_POINT ('', (-2.29512572582653E-14, -13.3505855451598, 7.77871065107575));
#120 = CARTESIAN_POINT ('', (13.3505855451597, -13.3505855451598, 7.77871065107575));
#121 = CARTESIAN_POINT ('', (13.3505855451597, -1.11677135215009E-14, 7.77871065107575));
#122 = CARTESIAN_POINT ('', (13.3505855451598, 13.3505855451597, 7.77871065107575));
#123 = CARTESIAN_POINT ('', (-1.57772181044202E-30, 13.3505855451598, 7.77871065107575));
#124 = CARTESIAN_POINT ('', (0., 11.5808871097171, 7.08048747178924));
#125 = CARTESIAN_POINT ('', (-11.5808871097171, 11.5808871097172, 7.08048747178924));
#126 = CARTESIAN_POINT ('', (-11.5808871097172, 1.33101561460056E-14, 7.08048747178924));
#127 = CARTESIAN_POINT ('', (-11.5808871097172, -11.5808871097171, 7.08048747178924));
#128 = CARTESIAN_POINT ('', (-2.27345317058232E-14, -11.5808871097171, 7.08048747178924));
#129 = CARTESIAN_POINT ('', (11.5808871097171, -11.5808871097172, 7.08048747178924));
#130 = CARTESIAN_POINT ('', (11.5808871097171, -1.08426251928378E-14, 7.08048747178924));
#131 = CARTESIAN_POINT ('', (11.5808871097171, 11.5808871097171, 7.08048747178924));
#132 = CARTESIAN_POINT ('', (0., 11.5808871097171, 7.08048747178924));
#133 = CARTESIAN_POINT ('', (0., 9.70331262161984, 6.45274007639786));
#134 = CARTESIAN_POINT ('', (-9.70331262161984, 9.70331262161985, 6.45274007639786));
#135 = CARTESIAN_POINT ('', (-9.70331262161985, 1.31951878666552E-14, 6.45274007639786));
#136 = CARTESIAN_POINT ('', (-9.70331262161986, -9.70331262161983, 6.45274007639786));
#137 = CARTESIAN_POINT ('', (-2.25045951471223E-14, -9.70331262161984, 6.45274007639786));
#138 = CARTESIAN_POINT ('', (9.70331262161982, -9.70331262161985, 6.45274007639786));
#139 = CARTESIAN_POINT ('', (9.70331262161983, -1.04977203547864E-14, 6.45274007639786));
#140 = CARTESIAN_POINT ('', (9.70331262161984, 9.70331262161983, 6.45274007639786));
#141 = CARTESIAN_POINT ('', (0., 9.70331262161984, 6.45274007639786));
#142 = CARTESIAN_POINT ('', (0., 7.82552391613309, 5.93715504697734));
#143 = CARTESIAN_POINT ('', (-7.82552391613309, 7.8255239161331, 5.93715504697734));
#144 = CARTESIAN_POINT ('', (-7.8255239161331, 1.30802064702727E-14, 5.93715504697734));
#145 = CARTESIAN_POINT ('', (-7.82552391613311, -7.82552391613308, 5.93715504697734));
#146 = CARTESIAN_POINT ('', (-2.22746323543573E-14, -7.82552391613309, 5.93715504697734));
#147 = CARTESIAN_POINT ('', (7.82552391613307, -7.8255239161331, 5.93715504697734));
#148 = CARTESIAN_POINT ('', (7.82552391613308, -1.0152776165639E-14, 5.93715504697734));
#149 = CARTESIAN_POINT ('', (7.82552391613309, 7.82552391613308, 5.93715504697734));
#150 = CARTESIAN_POINT ('', (0., 7.82552391613309, 5.93715504697734));
#151 = CARTESIAN_POINT ('', (0., 5.94756302890179, 5.53298855988325));
#152 = CARTESIAN_POINT ('', (-5.94756302890179, 5.9475630289018, 5.53298855988325));
#153 = CARTESIAN_POINT ('', (-5.9475630289018, 1.29652145307991E-14, 5.53298855988325));
#154 = CARTESIAN_POINT ('', (-5.94756302890181, -5.94756302890177, 5.53298855988325));
#155 = CARTESIAN_POINT ('', (-2.20446484754102E-14, -5.94756302890179, 5.53298855988325));
#156 = CARTESIAN_POINT ('', (5.94756302890177, -5.9475630289018, 5.53298855988325));
#157 = CARTESIAN_POINT ('', (5.94756302890178, -9.80780034721823E-15, 5.53298855988325));
#158 = CARTESIAN_POINT ('', (5.94756302890179, 5.94756302890178, 5.53298855988325));
#159 = CARTESIAN_POINT ('', (0., 5.94756302890179, 5.53298855988325));
#160 = CARTESIAN_POINT ('', (0., 4.06947130395723, 5.23959016784466));
#161 = CARTESIAN_POINT ('', (-4.06947130395722, 4.06947130395724, 5.23959016784466));
#162 = CARTESIAN_POINT ('', (-4.06947130395723, 1.28502145798262E-14, 5.23959016784466));
#163 = CARTESIAN_POINT ('', (-4.06947130395725, -4.06947130395721, 5.23959016784466));
#164 = CARTESIAN_POINT ('', (-2.18146485734643E-14, -4.06947130395722, 5.23959016784466));
#165 = CARTESIAN_POINT ('', (4.0694713039572, -4.06947130395723, 5.23959016784466));
#166 = CARTESIAN_POINT ('', (4.06947130395721, -9.46280049429946E-15, 5.23959016784466));
#167 = CARTESIAN_POINT ('', (4.06947130395722, 4.06947130395721, 5.23959016784466));
#168 = CARTESIAN_POINT ('', (0., 4.06947130395723, 5.23959016784466));
#169 = CARTESIAN_POINT ('', (1.57772181044202E-30, 2.08758480215167, 5.04634600558478));
#170 = CARTESIAN_POINT ('', (-2.08758480215167, 2.08758480215168, 5.04634600558478));
#171 = CARTESIAN_POINT ('', (-2.08758480215168, 1.27288590317907E-14, 5.04634600558478));
#172 = CARTESIAN_POINT ('', (-2.08758480215169, -2.08758480215165, 5.04634600558478));
#173 = CARTESIAN_POINT ('', (-2.15719374773934E-14, -2.08758480215166, 5.04634600558478));
#174 = CARTESIAN_POINT ('', (2.08758480215164, -2.08758480215167, 5.04634600558478));
#175 = CARTESIAN_POINT ('', (2.08758480215165, -9.09873385019304E-15, 5.04634600558478));
#176 = CARTESIAN_POINT ('', (2.08758480215167, 2.08758480215166, 5.04634600558478));
#177 = CARTESIAN_POINT ('', (1.57772181044202E-30, 2.08758480215167, 5.04634600558478));
#178 = CARTESIAN_POINT ('', (-1.57772181044202E-30, 0.72974042216431, 5.));
#179 = CARTESIAN_POINT ('', (-0.729740422164308, 0.729740422164321, 5.));
#180 = CARTESIAN_POINT ('', (-0.729740422164319, 1.26457150431061E-14, 5.));
#181 = CARTESIAN_POINT ('', (-0.72974042216433, -0.729740422164295, 5.));
#182 = CARTESIAN_POINT ('', (-2.14056495000242E-14, -0.729740422164306, 5.));
#183 = CARTESIAN_POINT ('', (0.729740422164287, -0.729740422164317, 5.));
#184 = CARTESIAN_POINT ('', (0.729740422164298, -8.84930188413927E-15, 5.));
#185 = CARTESIAN_POINT ('', (0.729740422164308, 0.729740422164299, 5.));
#186 = CARTESIAN_POINT ('', (-1.57772181044202E-30, 0.72974042216431, 5.));
#187 = CARTESIAN_POINT ('', (0., 0., 5.));
#188 = CARTESIAN_POINT ('', (0., 0., 5.));
#189 = CARTESIAN_POINT ('', (0., 0., 5.));
#190 = CARTESIAN_POINT ('', (0., 0., 5.));
#191 = CARTESIAN_POINT ('', (0., 0., 5.));
#192 = CARTESIAN_POINT ('', (0., 0., 5.));
#193 = CARTESIAN_POINT ('', (0., 0., 5.));
#194 = CARTESIAN_POINT ('', (0., 0., 5.));
#195 = CARTESIAN_POINT ('', (0., 0., 5.));
#196 = (
   BOUNDED_SURFACE ()
   B_SPLINE_SURFACE (3, 2, ((#97, #98, #99, #100, #101, #102, #103, #104, #105), (#106, #107, #108, #109, #110, #111, #112, #113, #114), (#115, #116, #117, #118, #119, #120, #121, #122, #123), (#124, #125, #126, #127, #128, #129, #130, #131, #132), (#133, #134, #135, #136, #137, #138, #139, #140, #141), (#142, #143, #144, #145, #146, #147, #148, #149, #150), (#151, #152, #153, #154, #155, #156, #157, #158, #159), (#160, #161, #162, #163, #164, #165, #166, #167, #168), (#169, #170, #171, #172, #173, #174, #175, #176, #177), (#178, #179, #180, #181, #182, #183, #184, #185, #186), (#187, #188, #189, #190, #191, #192, #193, #194, #195)), .UNSPECIFIED., .F., .T., .U.)
   B_SPLINE_SURFACE_WITH_KNOTS ((4, 1, 1, 1, 1, 1, 1, 1, 4), (3, 2, 2, 2, 3), (0., 0.110227459167865, 0.239932511309331, 0.367158612235054, 0.492291318846844, 0.615726309427187, 0.737866004426358, 0.859117166424432, 1.), (0., 90., 180., 270., 360.), .UNSPECIFIED.)
   SURFACE ()
   GEOMETRIC_REPRESENTATION_ITEM ()
   RATIONAL_B_SPLINE_SURFACE (((1., 0.707106781186548, 1., 0.707106781186548, 1., 0.707106781186548, 1., 0.707106781186548, 1.), (1., 0.707106781186548, 1., 0.707106781186548, 1., 0.707106781186548, 1., 0.707106781186548, 1.), (1., 0.707106781186548, 1., 0.707106781186548, 1., 0.707106781186548, 1., 0.707106781186548, 1.), (1., 0.707106781186548, 1., 0.707106781186548, 1., 0.707106781186548, 1., 0.707106781186548, 1.), (1., 0.707106781186548, 1., 0.707106781186548, 1., 0.707106781186548, 1., 0.707106781186548, 1.), (1., 0.707106781186548, 1., 0.707106781186548, 1., 0.707106781186548, 1., 0.707106781186548, 1.), (1., 0.707106781186548, 1., 0.707106781186548, 1., 0.707106781186548, 1., 0.707106781186548, 1.), (1., 0.707106781186548, 1., 0.707106781186548, 1., 0.707106781186548, 1., 0.707106781186548, 1.), (1., 0.707106781186548, 1., 0.707106781186548, 1., 0.707106781186548, 1., 0.707106781186548, 1.), (1., 0.707106781186548, 1., 0.707106781186548, 1., 0.707106781186548, 1., 0.707106781186548, 1.), (1., 0.707106781186548, 1., 0.707106781186548, 1., 0.707106781186548, 1., 0.707106781186548, 1.)))
   REPRESENTATION_ITEM ('')
);
#197 = ADVANCED_FACE ('', (#96), #196, .T.);
#198 = ORIENTED_EDGE ('', *, *, #34, .T.);
#199 = ORIENTED_EDGE ('', *, *, #64, .T.);
#200 = EDGE_LOOP ('', (#198, #199));
#201 = FACE_OUTER_BOUND ('', #200, .T.);
#202 = CARTESIAN_POINT ('', (-4.2632564145606E-14, 5.6843418860808E-14, -133.699999999993));
#203 = DIRECTION ('', (-1., 0., -3.91581428578995E-16));
#204 = DIRECTION ('', (0., -1., 0.));
#205 = AXIS2_PLACEMENT_3D ('', #202, #203, #204);
#206 = SPHERICAL_SURFACE ('', #205, 149.999999999993);
#207 = ADVANCED_FACE ('', (#201), #206, .T.);
#208 = CLOSED_SHELL ('', (#48, #74, #197, #207));
#209 = MANIFOLD_SOLID_BREP ('', #208);
#210 = PRESENTATION_LAYER_ASSIGNMENT ('Level 0', 'Level 0', (#209));
#211 = (
   LENGTH_UNIT ()
   NAMED_UNIT (*)
   SI_UNIT (.MILLI., .METRE.)
);
#212 = (
   NAMED_UNIT (*)
   SI_UNIT ($, .STERADIAN.)
   SOLID_ANGLE_UNIT ()
);
#213 = (
   NAMED_UNIT (*)
   SI_UNIT ($, .RADIAN.)
   PLANE_ANGLE_UNIT ()
);
#214 = UNCERTAINTY_MEASURE_WITH_UNIT (LENGTH_MEASURE(0.0001), #211, 'DISTANCE_ACCURACY_VALUE', '');
#215 = (
   GEOMETRIC_REPRESENTATION_CONTEXT (3)
   GLOBAL_UNCERTAINTY_ASSIGNED_CONTEXT ((#214))
   GLOBAL_UNIT_ASSIGNED_CONTEXT ((#211, #212, #213))
   REPRESENTATION_CONTEXT ('', '3D')
);
#216 = ADVANCED_BREP_SHAPE_REPRESENTATION ('', (#209), #215);
#217 = APPLICATION_CONTEXT ('configuration controlled 3D designs of mechanical parts and assemblies');
#218 = APPLICATION_PROTOCOL_DEFINITION ('International Standard', 'config_control_design', 1997, #217);
#219 = MECHANICAL_CONTEXT ('', #217, 'mechanical');
#220 = PRODUCT ('NONE', '', '', (#219));
#221 = PERSON_AND_ORGANIZATION_ROLE ('design_owner');
#222 = PERSON ('', '', $, $, $, $);
#223 = ORGANIZATION ($, '', '');
#224 = PERSON_AND_ORGANIZATION (#222, #223);
#225 = CC_DESIGN_PERSON_AND_ORGANIZATION_ASSIGNMENT (#224, #221, (#220));
#226 = PRODUCT_RELATED_PRODUCT_CATEGORY ('detail', $, (#220));
#227 = PRODUCT_DEFINITION_FORMATION_WITH_SPECIFIED_SOURCE ('', '', #220, .NOT_KNOWN.);
#228 = APPROVAL_STATUS ('approved');
#229 = APPROVAL (#228, '');
#230 = CALENDAR_DATE (2019, 29, 10);
#231 = COORDINATED_UNIVERSAL_TIME_OFFSET (0, $, .AHEAD.);
#232 = LOCAL_TIME (12, 13, 12., #231);
#233 = DATE_AND_TIME (#230, #232);
#234 = APPROVAL_DATE_TIME (#233, #229);
#235 = APPROVAL_ROLE ('');
#236 = PERSON ('', '', $, $, $, $);
#237 = ORGANIZATION ($, '', '');
#238 = PERSON_AND_ORGANIZATION (#236, #237);
#239 = APPROVAL_PERSON_ORGANIZATION (#238, #229, #235);
#240 = CC_DESIGN_APPROVAL (#229, (#227));
#241 = PERSON_AND_ORGANIZATION_ROLE ('creator');
#242 = PERSON ('', '', $, $, $, $);
#243 = ORGANIZATION ($, '', '');
#244 = PERSON_AND_ORGANIZATION (#242, #243);
#245 = CC_DESIGN_PERSON_AND_ORGANIZATION_ASSIGNMENT (#244, #241, (#227));
#246 = PERSON_AND_ORGANIZATION_ROLE ('part_supplier');
#247 = PERSON ('', '', $, $, $, $);
#248 = ORGANIZATION ($, '', '');
#249 = PERSON_AND_ORGANIZATION (#247, #248);
#250 = CC_DESIGN_PERSON_AND_ORGANIZATION_ASSIGNMENT (#249, #246, (#227));
#251 = SECURITY_CLASSIFICATION_LEVEL ('unclassified');
#252 = SECURITY_CLASSIFICATION ('', '', #251);
#253 = APPROVAL_STATUS ('approved');
#254 = APPROVAL (#253, '');
#255 = CALENDAR_DATE (2019, 29, 10);
#256 = COORDINATED_UNIVERSAL_TIME_OFFSET (0, $, .AHEAD.);
#257 = LOCAL_TIME (12, 13, 12., #256);
#258 = DATE_AND_TIME (#255, #257);
#259 = APPROVAL_DATE_TIME (#258, #254);
#260 = APPROVAL_ROLE ('');
#261 = PERSON ('', '', $, $, $, $);
#262 = ORGANIZATION ($, '', '');
#263 = PERSON_AND_ORGANIZATION (#261, #262);
#264 = APPROVAL_PERSON_ORGANIZATION (#263, #254, #260);
#265 = CC_DESIGN_APPROVAL (#254, (#252));
#266 = DATE_TIME_ROLE ('classification_date');
#267 = CALENDAR_DATE (2019, 29, 10);
#268 = COORDINATED_UNIVERSAL_TIME_OFFSET (0, $, .AHEAD.);
#269 = LOCAL_TIME (12, 13, 12., #268);
#270 = DATE_AND_TIME (#267, #269);
#271 = CC_DESIGN_DATE_AND_TIME_ASSIGNMENT (#270, #266, (#252));
#272 = PERSON_AND_ORGANIZATION_ROLE ('classification_officer');
#273 = PERSON ('', '', $, $, $, $);
#274 = ORGANIZATION ($, '', '');
#275 = PERSON_AND_ORGANIZATION (#273, #274);
#276 = CC_DESIGN_PERSON_AND_ORGANIZATION_ASSIGNMENT (#275, #272, (#252));
#277 = CC_DESIGN_SECURITY_CLASSIFICATION (#252, (#227));
#278 = DESIGN_CONTEXT ('', #217, 'design');
#279 = PRODUCT_DEFINITION ('', '', #227, #278);
#280 = APPROVAL_STATUS ('approved');
#281 = APPROVAL (#280, '');
#282 = CALENDAR_DATE (2019, 29, 10);
#283 = COORDINATED_UNIVERSAL_TIME_OFFSET (0, $, .AHEAD.);
#284 = LOCAL_TIME (12, 13, 12., #283);
#285 = DATE_AND_TIME (#282, #284);
#286 = APPROVAL_DATE_TIME (#285, #281);
#287 = APPROVAL_ROLE ('');
#288 = PERSON ('', '', $, $, $, $);
#289 = ORGANIZATION ($, '', '');
#290 = PERSON_AND_ORGANIZATION (#288, #289);
#291 = APPROVAL_PERSON_ORGANIZATION (#290, #281, #287);
#292 = CC_DESIGN_APPROVAL (#281, (#279));
#293 = DATE_TIME_ROLE ('creation_date');
#294 = CALENDAR_DATE (2019, 29, 10);
#295 = COORDINATED_UNIVERSAL_TIME_OFFSET (0, $, .AHEAD.);
#296 = LOCAL_TIME (12, 13, 12., #295);
#297 = DATE_AND_TIME (#294, #296);
#298 = CC_DESIGN_DATE_AND_TIME_ASSIGNMENT (#297, #293, (#279));
#299 = PERSON_AND_ORGANIZATION_ROLE ('creator');
#300 = PERSON ('', '', $, $, $, $);
#301 = ORGANIZATION ($, '', '');
#302 = PERSON_AND_ORGANIZATION (#300, #301);
#303 = CC_DESIGN_PERSON_AND_ORGANIZATION_ASSIGNMENT (#302, #299, (#279));
#304 = PRODUCT_DEFINITION_SHAPE ('', '', #279);
#305 = SHAPE_DEFINITION_REPRESENTATION (#304, #216);
ENDSEC;
END-ISO-10303-21;
