ISO-10303-21;
HEADER;
FILE_DESCRIPTION ((), '1');
FILE_NAME ('T:\\CAD\\AsphXren\\S1ADX0310.STP', '2013-06-04T14:47:41', ('Unknown'), ('Unknown'), 'HarmonyWare STEP v1.5.0', 'HarmonyWare Translators', '');
FILE_SCHEMA (('CONFIG_CONTROL_DESIGN'));
ENDSEC;

DATA;
#10 = CARTESIAN_POINT ('', (19.05, 0., 3.40321747008123));
#20 = VERTEX_POINT ('', #10);
#30 = CARTESIAN_POINT ('', (1.16647607618785E-15, 19.05, 3.40321747008123));
#40 = VERTEX_POINT ('', #30);
#50 = CARTESIAN_POINT ('', (19.05, 0., 3.40321747008123));
#60 = CARTESIAN_POINT ('', (19.05, 19.05, 3.40321747008123));
#70 = CARTESIAN_POINT ('', (1.16647607618785E-15, 19.05, 3.40321747008123));
#80 = (
   BOUNDED_CURVE ()
   B_SPLINE_CURVE (2, (#50, #60, #70), .UNSPECIFIED., .F., .U.)
   B_SPLINE_CURVE_WITH_KNOTS ((3, 3), (0., 1.5707963267949), .UNSPECIFIED.)
   CURVE ()
   GEOMETRIC_REPRESENTATION_ITEM ()
   RATIONAL_B_SPLINE_CURVE ((1., 0.707106781186548, 1.))
   REPRESENTATION_ITEM ('')
);
#90 = EDGE_CURVE ('', #20, #40, #80, .T.);
#100 = ORIENTED_EDGE ('', *, *, #90, .T.);
#110 = CARTESIAN_POINT ('', (-19.05, 2.33295215237571E-15, 3.40321747008123));
#120 = VERTEX_POINT ('', #110);
#130 = CARTESIAN_POINT ('', (1.16647607618785E-15, 19.05, 3.40321747008123));
#140 = CARTESIAN_POINT ('', (-19.05, 19.05, 3.40321747008123));
#150 = CARTESIAN_POINT ('', (-19.05, 2.33295215237571E-15, 3.40321747008123));
#160 = (
   BOUNDED_CURVE ()
   B_SPLINE_CURVE (2, (#130, #140, #150), .UNSPECIFIED., .F., .U.)
   B_SPLINE_CURVE_WITH_KNOTS ((3, 3), (1.5707963267949, 3.14159265358979), .UNSPECIFIED.)
   CURVE ()
   GEOMETRIC_REPRESENTATION_ITEM ()
   RATIONAL_B_SPLINE_CURVE ((1., 0.707106781186548, 1.))
   REPRESENTATION_ITEM ('')
);
#170 = EDGE_CURVE ('', #40, #120, #160, .T.);
#180 = ORIENTED_EDGE ('', *, *, #170, .T.);
#190 = CARTESIAN_POINT ('', (-19.05, 2.33295215237571E-15, 10.2554303930983));
#200 = VERTEX_POINT ('', #190);
#210 = CARTESIAN_POINT ('', (-19.05, 2.33295215237571E-15, 3.40321747008123));
#220 = CARTESIAN_POINT ('', (-19.05, 2.33295215237571E-15, 10.2554303930983));
#230 = B_SPLINE_CURVE_WITH_KNOTS ('', 1, (#210, #220), .UNSPECIFIED., .F., .U., (2, 2), (0., 1.), .UNSPECIFIED.);
#240 = EDGE_CURVE ('', #120, #200, #230, .T.);
#250 = ORIENTED_EDGE ('', *, *, #240, .T.);
#260 = CARTESIAN_POINT ('', (19.05, 0., 10.2554303930983));
#270 = VERTEX_POINT ('', #260);
#280 = CARTESIAN_POINT ('', (19.05, 0., 10.2554303930983));
#290 = CARTESIAN_POINT ('', (19.05, 19.05, 10.2554303930983));
#300 = CARTESIAN_POINT ('', (1.16647607618785E-15, 19.05, 10.2554303930983));
#310 = CARTESIAN_POINT ('', (-19.05, 19.05, 10.2554303930983));
#320 = CARTESIAN_POINT ('', (-19.05, 2.33295215237571E-15, 10.2554303930983));
#330 = (
   BOUNDED_CURVE ()
   B_SPLINE_CURVE (2, (#280, #290, #300, #310, #320), .UNSPECIFIED., .F., .U.)
   B_SPLINE_CURVE_WITH_KNOTS ((3, 2, 3), (0., 1.5707963267949, 3.14159265358979), .UNSPECIFIED.)
   CURVE ()
   GEOMETRIC_REPRESENTATION_ITEM ()
   RATIONAL_B_SPLINE_CURVE ((1., 0.707106781186548, 1., 0.707106781186548, 1.))
   REPRESENTATION_ITEM ('')
);
#340 = EDGE_CURVE ('', #270, #200, #330, .T.);
#350 = ORIENTED_EDGE ('', *, *, #340, .F.);
#360 = CARTESIAN_POINT ('', (19.05, 0., 3.40321747008123));
#370 = CARTESIAN_POINT ('', (19.05, 0., 10.2554303930983));
#380 = B_SPLINE_CURVE_WITH_KNOTS ('', 1, (#360, #370), .UNSPECIFIED., .F., .U., (2, 2), (0., 1.), .UNSPECIFIED.);
#390 = EDGE_CURVE ('', #20, #270, #380, .T.);
#400 = ORIENTED_EDGE ('', *, *, #390, .F.);
#410 = EDGE_LOOP ('', (#100, #180, #250, #350, #400));
#420 = FACE_OUTER_BOUND ('', #410, .T.);
#430 = CARTESIAN_POINT ('', (-1.77635683940025E-15, 1.77635683940025E-15, 3.40321747008123));
#440 = DIRECTION ('', (2.3311769545935E-17, -2.17375439745114E-33, 1.));
#450 = DIRECTION ('', (1., -9.32470781837402E-17, -2.3311769545935E-17));
#460 = AXIS2_PLACEMENT_3D ('', #430, #440, #450);
#470 = CYLINDRICAL_SURFACE ('', #460, 19.05);
#480 = ADVANCED_FACE ('', (#420), #470, .T.);
#490 = CARTESIAN_POINT ('', (-19.05, 2.33295215237571E-15, 3.40321747008123));
#500 = CARTESIAN_POINT ('', (-19.05, -19.05, 3.40321747008123));
#510 = CARTESIAN_POINT ('', (-3.49942822856356E-15, -19.05, 3.40321747008123));
#520 = CARTESIAN_POINT ('', (19.05, -19.05, 3.40321747008123));
#530 = CARTESIAN_POINT ('', (19.05, -4.66590430475142E-15, 3.40321747008123));
#540 = (
   BOUNDED_CURVE ()
   B_SPLINE_CURVE (2, (#490, #500, #510, #520, #530), .UNSPECIFIED., .F., .U.)
   B_SPLINE_CURVE_WITH_KNOTS ((3, 2, 3), (3.14159265358979, 4.71238898038469, 6.28318530717959), .UNSPECIFIED.)
   CURVE ()
   GEOMETRIC_REPRESENTATION_ITEM ()
   RATIONAL_B_SPLINE_CURVE ((1., 0.707106781186548, 1., 0.707106781186548, 1.))
   REPRESENTATION_ITEM ('')
);
#550 = EDGE_CURVE ('', #120, #20, #540, .T.);
#560 = ORIENTED_EDGE ('', *, *, #550, .T.);
#570 = ORIENTED_EDGE ('', *, *, #390, .T.);
#580 = CARTESIAN_POINT ('', (-19.05, 2.33295215237571E-15, 10.2554303930983));
#590 = CARTESIAN_POINT ('', (-19.05, -19.05, 10.2554303930983));
#600 = CARTESIAN_POINT ('', (-3.49942822856356E-15, -19.05, 10.2554303930983));
#610 = CARTESIAN_POINT ('', (19.05, -19.05, 10.2554303930983));
#620 = CARTESIAN_POINT ('', (19.05, -4.66590430475142E-15, 10.2554303930983));
#630 = (
   BOUNDED_CURVE ()
   B_SPLINE_CURVE (2, (#580, #590, #600, #610, #620), .UNSPECIFIED., .F., .U.)
   B_SPLINE_CURVE_WITH_KNOTS ((3, 2, 3), (3.14159265358979, 4.71238898038469, 6.28318530717959), .UNSPECIFIED.)
   CURVE ()
   GEOMETRIC_REPRESENTATION_ITEM ()
   RATIONAL_B_SPLINE_CURVE ((1., 0.707106781186548, 1., 0.707106781186548, 1.))
   REPRESENTATION_ITEM ('')
);
#640 = EDGE_CURVE ('', #200, #270, #630, .T.);
#650 = ORIENTED_EDGE ('', *, *, #640, .F.);
#660 = ORIENTED_EDGE ('', *, *, #240, .F.);
#670 = EDGE_LOOP ('', (#560, #570, #650, #660));
#680 = FACE_OUTER_BOUND ('', #670, .T.);
#690 = CARTESIAN_POINT ('', (0., -1.77635683940025E-15, 3.40321747008123));
#700 = DIRECTION ('', (-2.3311769545935E-17, 5.02862279314015E-33, 1.));
#710 = DIRECTION ('', (-1., 2.15711758098476E-16, -2.3311769545935E-17));
#720 = AXIS2_PLACEMENT_3D ('', #690, #700, #710);
#730 = CYLINDRICAL_SURFACE ('', #720, 19.05);
#740 = ADVANCED_FACE ('', (#680), #730, .T.);
#750 = CARTESIAN_POINT ('', (0., 0., 0.));
#760 = VERTEX_POINT ('', #750);
#770 = CARTESIAN_POINT ('', (0., 0., 0.));
#780 = CARTESIAN_POINT ('', (0., 0.926463998244819, 0.));
#790 = CARTESIAN_POINT ('', (0., 2.64896506098845, 0.0447125882120073));
#800 = CARTESIAN_POINT ('', (0., 5.16452350504967, 0.231249462525416));
#810 = CARTESIAN_POINT ('', (0., 7.54809037933829, 0.514244797958443));
#820 = CARTESIAN_POINT ('', (0., 9.93159991176787, 0.903743758568655));
#830 = CARTESIAN_POINT ('', (0., 12.3150373031367, 1.40011031580727));
#840 = CARTESIAN_POINT ('', (0., 15.3757739802962, 2.17539114926517));
#850 = CARTESIAN_POINT ('', (0., 17.6128624686978, 2.88708925181682));
#860 = CARTESIAN_POINT ('', (0., 19.05, 3.40321747008123));
#870 = (
   BOUNDED_CURVE ()
   B_SPLINE_CURVE (3, (#770, #780, #790, #800, #810, #820, #830, #840, #850, #860), .UNSPECIFIED., .F., .U.)
   B_SPLINE_CURVE_WITH_KNOTS ((4, 1, 1, 1, 1, 1, 1, 4), (0., 0.142909874295834, 0.2656948840706, 0.389002707149141, 0.51307325850788, 0.638144970585744, 0.764454437716241, 1.), .UNSPECIFIED.)
   CURVE ()
   GEOMETRIC_REPRESENTATION_ITEM ()
   RATIONAL_B_SPLINE_CURVE ((1., 1., 1., 1., 1., 1., 1., 1., 1., 1.))
   REPRESENTATION_ITEM ('')
);
#880 = EDGE_CURVE ('', #760, #40, #870, .T.);
#890 = ORIENTED_EDGE ('', *, *, #880, .T.);
#900 = ORIENTED_EDGE ('', *, *, #90, .F.);
#910 = ORIENTED_EDGE ('', *, *, #550, .F.);
#920 = ORIENTED_EDGE ('', *, *, #170, .F.);
#930 = ORIENTED_EDGE ('', *, *, #880, .F.);
#940 = EDGE_LOOP ('', (#890, #900, #910, #920, #930));
#950 = FACE_OUTER_BOUND ('', #940, .T.);
#960 = CARTESIAN_POINT ('', (0., 19.05, 3.40321747008123));
#970 = CARTESIAN_POINT ('', (-19.05, 19.05, 3.40321747008123));
#980 = CARTESIAN_POINT ('', (-19.05, 1.16647607618785E-15, 3.40321747008123));
#990 = CARTESIAN_POINT ('', (-19.05, -19.05, 3.40321747008123));
#1000 = CARTESIAN_POINT ('', (-2.33295215237571E-15, -19.05, 3.40321747008123));
#1010 = CARTESIAN_POINT ('', (19.05, -19.05, 3.40321747008123));
#1020 = CARTESIAN_POINT ('', (19.05, -3.49942822856356E-15, 3.40321747008123));
#1030 = CARTESIAN_POINT ('', (19.05, 19.05, 3.40321747008123));
#1040 = CARTESIAN_POINT ('', (0., 19.05, 3.40321747008123));
#1050 = CARTESIAN_POINT ('', (0., 17.6128624686978, 2.88708925181682));
#1060 = CARTESIAN_POINT ('', (-17.6128624686978, 17.6128624686978, 2.88708925181682));
#1070 = CARTESIAN_POINT ('', (-17.6128624686978, 1.07847678230566E-15, 2.88708925181682));
#1080 = CARTESIAN_POINT ('', (-17.6128624686978, -17.6128624686978, 2.88708925181682));
#1090 = CARTESIAN_POINT ('', (-2.15695356461133E-15, -17.6128624686978, 2.88708925181682));
#1100 = CARTESIAN_POINT ('', (17.6128624686978, -17.6128624686978, 2.88708925181682));
#1110 = CARTESIAN_POINT ('', (17.6128624686978, -3.23543034691699E-15, 2.88708925181682));
#1120 = CARTESIAN_POINT ('', (17.6128624686978, 17.6128624686978, 2.88708925181682));
#1130 = CARTESIAN_POINT ('', (0., 17.6128624686978, 2.88708925181682));
#1140 = CARTESIAN_POINT ('', (0., 15.3757739802962, 2.17539114926517));
#1150 = CARTESIAN_POINT ('', (-15.3757739802962, 15.3757739802962, 2.17539114926517));
#1160 = CARTESIAN_POINT ('', (-15.3757739802962, 9.41494619469147E-16, 2.17539114926517));
#1170 = CARTESIAN_POINT ('', (-15.3757739802962, -15.3757739802962, 2.17539114926517));
#1180 = CARTESIAN_POINT ('', (-1.88298923893829E-15, -15.3757739802962, 2.17539114926517));
#1190 = CARTESIAN_POINT ('', (15.3757739802962, -15.3757739802962, 2.17539114926517));
#1200 = CARTESIAN_POINT ('', (15.3757739802962, -2.82448385840744E-15, 2.17539114926517));
#1210 = CARTESIAN_POINT ('', (15.3757739802962, 15.3757739802962, 2.17539114926517));
#1220 = CARTESIAN_POINT ('', (0., 15.3757739802962, 2.17539114926517));
#1230 = CARTESIAN_POINT ('', (0., 12.3150373031367, 1.40011031580727));
#1240 = CARTESIAN_POINT ('', (-12.3150373031367, 12.3150373031367, 1.40011031580727));
#1250 = CARTESIAN_POINT ('', (-12.3150373031367, 7.54078550733331E-16, 1.40011031580727));
#1260 = CARTESIAN_POINT ('', (-12.3150373031367, -12.3150373031367, 1.40011031580727));
#1270 = CARTESIAN_POINT ('', (-1.50815710146666E-15, -12.3150373031367, 1.40011031580727));
#1280 = CARTESIAN_POINT ('', (12.3150373031367, -12.3150373031367, 1.40011031580727));
#1290 = CARTESIAN_POINT ('', (12.3150373031367, -2.26223565219999E-15, 1.40011031580727));
#1300 = CARTESIAN_POINT ('', (12.3150373031367, 12.3150373031367, 1.40011031580727));
#1310 = CARTESIAN_POINT ('', (0., 12.3150373031367, 1.40011031580727));
#1320 = CARTESIAN_POINT ('', (0., 9.93159991176787, 0.903743758568655));
#1330 = CARTESIAN_POINT ('', (-9.93159991176787, 9.93159991176787, 0.903743758568655));
#1340 = CARTESIAN_POINT ('', (-9.93159991176787, 6.08135102117933E-16, 0.903743758568655));
#1350 = CARTESIAN_POINT ('', (-9.93159991176787, -9.93159991176787, 0.903743758568655));
#1360 = CARTESIAN_POINT ('', (-1.21627020423587E-15, -9.93159991176787, 0.903743758568655));
#1370 = CARTESIAN_POINT ('', (9.93159991176786, -9.93159991176787, 0.903743758568655));
#1380 = CARTESIAN_POINT ('', (9.93159991176787, -1.8244053063538E-15, 0.903743758568655));
#1390 = CARTESIAN_POINT ('', (9.93159991176787, 9.93159991176786, 0.903743758568655));
#1400 = CARTESIAN_POINT ('', (0., 9.93159991176787, 0.903743758568655));
#1410 = CARTESIAN_POINT ('', (0., 7.54809037933829, 0.514244797958443));
#1420 = CARTESIAN_POINT ('', (-7.54809037933829, 7.54809037933829, 0.514244797958443));
#1430 = CARTESIAN_POINT ('', (-7.54809037933829, 4.62187236136578E-16, 0.514244797958443));
#1440 = CARTESIAN_POINT ('', (-7.54809037933829, -7.54809037933829, 0.514244797958443));
#1450 = CARTESIAN_POINT ('', (-9.24374472273157E-16, -7.54809037933829, 0.514244797958443));
#1460 = CARTESIAN_POINT ('', (7.54809037933829, -7.54809037933829, 0.514244797958443));
#1470 = CARTESIAN_POINT ('', (7.54809037933829, -1.38656170840974E-15, 0.514244797958443));
#1480 = CARTESIAN_POINT ('', (7.54809037933829, 7.54809037933829, 0.514244797958443));
#1490 = CARTESIAN_POINT ('', (0., 7.54809037933829, 0.514244797958443));
#1500 = CARTESIAN_POINT ('', (0., 5.16452350504967, 0.231249462525416));
#1510 = CARTESIAN_POINT ('', (-5.16452350504967, 5.16452350504967, 0.231249462525416));
#1520 = CARTESIAN_POINT ('', (-5.16452350504967, 3.16235858979018E-16, 0.231249462525416));
#1530 = CARTESIAN_POINT ('', (-5.16452350504967, -5.16452350504967, 0.231249462525416));
#1540 = CARTESIAN_POINT ('', (-6.32471717958035E-16, -5.16452350504967, 0.231249462525416));
#1550 = CARTESIAN_POINT ('', (5.16452350504967, -5.16452350504967, 0.231249462525416));
#1560 = CARTESIAN_POINT ('', (5.16452350504967, -9.48707576937053E-16, 0.231249462525416));
#1570 = CARTESIAN_POINT ('', (5.16452350504967, 5.16452350504967, 0.231249462525416));
#1580 = CARTESIAN_POINT ('', (0., 5.16452350504967, 0.231249462525416));
#1590 = CARTESIAN_POINT ('', (0., 2.64896506098845, 0.0447125882120073));
#1600 = CARTESIAN_POINT ('', (-2.64896506098845, 2.64896506098845, 0.0447125882120073));
#1610 = CARTESIAN_POINT ('', (-2.64896506098845, 1.62202329149634E-16, 0.0447125882120073));
#1620 = CARTESIAN_POINT ('', (-2.64896506098845, -2.64896506098845, 0.0447125882120073));
#1630 = CARTESIAN_POINT ('', (-3.24404658299268E-16, -2.64896506098845, 0.0447125882120073));
#1640 = CARTESIAN_POINT ('', (2.64896506098845, -2.64896506098845, 0.0447125882120073));
#1650 = CARTESIAN_POINT ('', (2.64896506098845, -4.86606987448903E-16, 0.0447125882120073));
#1660 = CARTESIAN_POINT ('', (2.64896506098845, 2.64896506098845, 0.0447125882120073));
#1670 = CARTESIAN_POINT ('', (0., 2.64896506098845, 0.0447125882120073));
#1680 = CARTESIAN_POINT ('', (0., 0.926463998244819, 0.));
#1690 = CARTESIAN_POINT ('', (-0.926463998244819, 0.926463998244819, 0.));
#1700 = CARTESIAN_POINT ('', (-0.926463998244819, 5.67295584987889E-17, 0.));
#1710 = CARTESIAN_POINT ('', (-0.926463998244819, -0.926463998244819, 0.));
#1720 = CARTESIAN_POINT ('', (-1.13459116997578E-16, -0.926463998244819, 0.));
#1730 = CARTESIAN_POINT ('', (0.926463998244819, -0.926463998244819, 0.));
#1740 = CARTESIAN_POINT ('', (0.926463998244819, -1.70188675496367E-16, 0.));
#1750 = CARTESIAN_POINT ('', (0.92646399824482, 0.926463998244819, 0.));
#1760 = CARTESIAN_POINT ('', (0., 0.926463998244819, 0.));
#1770 = CARTESIAN_POINT ('', (0., 0., 0.));
#1780 = CARTESIAN_POINT ('', (0., 0., 0.));
#1790 = CARTESIAN_POINT ('', (0., 0., 0.));
#1800 = CARTESIAN_POINT ('', (0., 0., 0.));
#1810 = CARTESIAN_POINT ('', (0., 0., 0.));
#1820 = CARTESIAN_POINT ('', (0., 0., 0.));
#1830 = CARTESIAN_POINT ('', (0., 0., 0.));
#1840 = CARTESIAN_POINT ('', (0., 0., 0.));
#1850 = CARTESIAN_POINT ('', (0., 0., 0.));
#1860 = (
   BOUNDED_SURFACE ()
   B_SPLINE_SURFACE (3, 2, ((#960, #970, #980, #990, #1000, #1010, #1020, #1030, #1040), (#1050, #1060, #1070, #1080, #1090, #1100, #1110, #1120, #1130), (#1140, #1150, #1160, #1170, #1180, #1190, #1200, #1210, #1220), (#1230, #1240, #1250, #1260, #1270, #1280, #1290, #1300, #1310), (#1320, #1330, #1340, #1350, #1360, #1370, #1380, #1390, #1400), (#1410, #1420, #1430, #1440, #1450, #1460, #1470, #1480, #1490), (#1500, #1510, #1520, #1530, #1540, #1550, #1560, #1570, #1580), (#1590, #1600, #1610, #1620, #1630, #1640, #1650, #1660, #1670), (#1680, #1690, #1700, #1710, #1720, #1730, #1740, #1750, #1760), (#1770, #1780, #1790, #1800, #1810, #1820, #1830, #1840, #1850)), .UNSPECIFIED., .F., .T., .U.)
   B_SPLINE_SURFACE_WITH_KNOTS ((4, 1, 1, 1, 1, 1, 1, 4), (3, 2, 2, 2, 3), (0., 0.235545562283759, 0.361855029414256, 0.48692674149212, 0.610997292850859, 0.7343051159294, 0.857090125704166, 1.), (0., 90., 180., 270., 360.), .UNSPECIFIED.)
   SURFACE ()
   GEOMETRIC_REPRESENTATION_ITEM ()
   RATIONAL_B_SPLINE_SURFACE (((1., 0.707106781186548, 1., 0.707106781186548, 1., 0.707106781186548, 1., 0.707106781186548, 1.), (1., 0.707106781186548, 1., 0.707106781186548, 1., 0.707106781186548, 1., 0.707106781186548, 1.), (1., 0.707106781186548, 1., 0.707106781186548, 1., 0.707106781186548, 1., 0.707106781186548, 1.), (1., 0.707106781186548, 1., 0.707106781186548, 1., 0.707106781186548, 1., 0.707106781186548, 1.), (1., 0.707106781186548, 1., 0.707106781186548, 1., 0.707106781186548, 1., 0.707106781186548, 1.), (1., 0.707106781186548, 1., 0.707106781186548, 1., 0.707106781186548, 1., 0.707106781186548, 1.), (1., 0.707106781186548, 1., 0.707106781186548, 1., 0.707106781186548, 1., 0.707106781186548, 1.), (1., 0.707106781186548, 1., 0.707106781186548, 1., 0.707106781186548, 1., 0.707106781186548, 1.), (1., 0.707106781186548, 1., 0.707106781186548, 1., 0.707106781186548, 1., 0.707106781186548, 1.), (1., 0.707106781186548, 1., 0.707106781186548, 1., 0.707106781186548, 1., 0.707106781186548, 1.)))
   REPRESENTATION_ITEM ('')
);
#1870 = ADVANCED_FACE ('', (#950), #1860, .T.);
#1880 = ORIENTED_EDGE ('', *, *, #340, .T.);
#1890 = ORIENTED_EDGE ('', *, *, #640, .T.);
#1900 = EDGE_LOOP ('', (#1880, #1890));
#1910 = FACE_OUTER_BOUND ('', #1900, .T.);
#1920 = CARTESIAN_POINT ('', (5.6843418860808E-14, -2.8421709430404E-14, -250.639999999988));
#1930 = DIRECTION ('', (-1., -2.22168859572869E-16, 1.91999110079724E-16));
#1940 = DIRECTION ('', (2.22168859572869E-16, -1., 4.44337719145738E-16));
#1950 = AXIS2_PLACEMENT_3D ('', #1920, #1930, #1940);
#1960 = SPHERICAL_SURFACE ('', #1950, 261.589999999988);
#1970 = ADVANCED_FACE ('', (#1910), #1960, .T.);
#1980 = CLOSED_SHELL ('', (#480, #740, #1870, #1970));
#1990 = MANIFOLD_SOLID_BREP ('', #1980);
#2000 = (
   LENGTH_UNIT ()
   NAMED_UNIT (*)
   SI_UNIT (.MILLI., .METRE.)
);
#2010 = (
   NAMED_UNIT (*)
   SI_UNIT ($, .STERADIAN.)
   SOLID_ANGLE_UNIT ()
);
#2020 = (
   NAMED_UNIT (*)
   SI_UNIT ($, .RADIAN.)
   PLANE_ANGLE_UNIT ()
);
#2030 = UNCERTAINTY_MEASURE_WITH_UNIT (LENGTH_MEASURE(0.0001), #2000, 'DISTANCE_ACCURACY_VALUE', '');
#2040 = (
   GEOMETRIC_REPRESENTATION_CONTEXT (3)
   GLOBAL_UNCERTAINTY_ASSIGNED_CONTEXT ((#2030))
   GLOBAL_UNIT_ASSIGNED_CONTEXT ((#2000, #2010, #2020))
   REPRESENTATION_CONTEXT ('', '3D')
);
#2050 = ADVANCED_BREP_SHAPE_REPRESENTATION ('', (#1990), #2040);
#2060 = APPLICATION_CONTEXT ('configuration controlled 3D designs of mechanical parts and assemblies');
#2070 = APPLICATION_PROTOCOL_DEFINITION ('International Standard', 'config_control_design', 1997, #2060);
#2080 = MECHANICAL_CONTEXT ('', #2060, 'mechanical');
#2090 = PRODUCT ('product-name', '', '', (#2080));
#2100 = PERSON_AND_ORGANIZATION_ROLE ('design_owner');
#2110 = PERSON ('', '', $, $, $, $);
#2120 = ORGANIZATION ($, '', '');
#2130 = PERSON_AND_ORGANIZATION (#2110, #2120);
#2140 = CC_DESIGN_PERSON_AND_ORGANIZATION_ASSIGNMENT (#2130, #2100, (#2090));
#2150 = PRODUCT_RELATED_PRODUCT_CATEGORY ('detail', $, (#2090));
#2160 = PRODUCT_DEFINITION_FORMATION_WITH_SPECIFIED_SOURCE ('', '', #2090, .NOT_KNOWN.);
#2170 = APPROVAL_STATUS ('approved');
#2180 = APPROVAL (#2170, '');
#2190 = CALENDAR_DATE (2013, 4, 6);
#2200 = COORDINATED_UNIVERSAL_TIME_OFFSET (0, $, .AHEAD.);
#2210 = LOCAL_TIME (14, 47, 41., #2200);
#2220 = DATE_AND_TIME (#2190, #2210);
#2230 = APPROVAL_DATE_TIME (#2220, #2180);
#2240 = APPROVAL_ROLE ('');
#2250 = PERSON ('', '', $, $, $, $);
#2260 = ORGANIZATION ($, '', '');
#2270 = PERSON_AND_ORGANIZATION (#2250, #2260);
#2280 = APPROVAL_PERSON_ORGANIZATION (#2270, #2180, #2240);
#2290 = CC_DESIGN_APPROVAL (#2180, (#2160));
#2300 = PERSON_AND_ORGANIZATION_ROLE ('creator');
#2310 = PERSON ('', '', $, $, $, $);
#2320 = ORGANIZATION ($, '', '');
#2330 = PERSON_AND_ORGANIZATION (#2310, #2320);
#2340 = CC_DESIGN_PERSON_AND_ORGANIZATION_ASSIGNMENT (#2330, #2300, (#2160));
#2350 = PERSON_AND_ORGANIZATION_ROLE ('part_supplier');
#2360 = PERSON ('', '', $, $, $, $);
#2370 = ORGANIZATION ($, '', '');
#2380 = PERSON_AND_ORGANIZATION (#2360, #2370);
#2390 = CC_DESIGN_PERSON_AND_ORGANIZATION_ASSIGNMENT (#2380, #2350, (#2160));
#2400 = SECURITY_CLASSIFICATION_LEVEL ('unclassified');
#2410 = SECURITY_CLASSIFICATION ('', '', #2400);
#2420 = APPROVAL_STATUS ('approved');
#2430 = APPROVAL (#2420, '');
#2440 = CALENDAR_DATE (2013, 4, 6);
#2450 = COORDINATED_UNIVERSAL_TIME_OFFSET (0, $, .AHEAD.);
#2460 = LOCAL_TIME (14, 47, 41., #2450);
#2470 = DATE_AND_TIME (#2440, #2460);
#2480 = APPROVAL_DATE_TIME (#2470, #2430);
#2490 = APPROVAL_ROLE ('');
#2500 = PERSON ('', '', $, $, $, $);
#2510 = ORGANIZATION ($, '', '');
#2520 = PERSON_AND_ORGANIZATION (#2500, #2510);
#2530 = APPROVAL_PERSON_ORGANIZATION (#2520, #2430, #2490);
#2540 = CC_DESIGN_APPROVAL (#2430, (#2410));
#2550 = DATE_TIME_ROLE ('classification_date');
#2560 = CALENDAR_DATE (2013, 4, 6);
#2570 = COORDINATED_UNIVERSAL_TIME_OFFSET (0, $, .AHEAD.);
#2580 = LOCAL_TIME (14, 47, 41., #2570);
#2590 = DATE_AND_TIME (#2560, #2580);
#2600 = CC_DESIGN_DATE_AND_TIME_ASSIGNMENT (#2590, #2550, (#2410));
#2610 = PERSON_AND_ORGANIZATION_ROLE ('classification_officer');
#2620 = PERSON ('', '', $, $, $, $);
#2630 = ORGANIZATION ($, '', '');
#2640 = PERSON_AND_ORGANIZATION (#2620, #2630);
#2650 = CC_DESIGN_PERSON_AND_ORGANIZATION_ASSIGNMENT (#2640, #2610, (#2410));
#2660 = CC_DESIGN_SECURITY_CLASSIFICATION (#2410, (#2160));
#2670 = DESIGN_CONTEXT ('', #2060, 'design');
#2680 = PRODUCT_DEFINITION ('', '', #2160, #2670);
#2690 = APPROVAL_STATUS ('approved');
#2700 = APPROVAL (#2690, '');
#2710 = CALENDAR_DATE (2013, 4, 6);
#2720 = COORDINATED_UNIVERSAL_TIME_OFFSET (0, $, .AHEAD.);
#2730 = LOCAL_TIME (14, 47, 41., #2720);
#2740 = DATE_AND_TIME (#2710, #2730);
#2750 = APPROVAL_DATE_TIME (#2740, #2700);
#2760 = APPROVAL_ROLE ('');
#2770 = PERSON ('', '', $, $, $, $);
#2780 = ORGANIZATION ($, '', '');
#2790 = PERSON_AND_ORGANIZATION (#2770, #2780);
#2800 = APPROVAL_PERSON_ORGANIZATION (#2790, #2700, #2760);
#2810 = CC_DESIGN_APPROVAL (#2700, (#2680));
#2820 = DATE_TIME_ROLE ('creation_date');
#2830 = CALENDAR_DATE (2013, 4, 6);
#2840 = COORDINATED_UNIVERSAL_TIME_OFFSET (0, $, .AHEAD.);
#2850 = LOCAL_TIME (14, 47, 41., #2840);
#2860 = DATE_AND_TIME (#2830, #2850);
#2870 = CC_DESIGN_DATE_AND_TIME_ASSIGNMENT (#2860, #2820, (#2680));
#2880 = PERSON_AND_ORGANIZATION_ROLE ('creator');
#2890 = PERSON ('', '', $, $, $, $);
#2900 = ORGANIZATION ($, '', '');
#2910 = PERSON_AND_ORGANIZATION (#2890, #2900);
#2920 = CC_DESIGN_PERSON_AND_ORGANIZATION_ASSIGNMENT (#2910, #2880, (#2680));
#2930 = PRODUCT_DEFINITION_SHAPE ('', '', #2680);
#2940 = SHAPE_DEFINITION_REPRESENTATION (#2930, #2050);
ENDSEC;
END-ISO-10303-21;
