ISO-10303-21;
HEADER;
FILE_DESCRIPTION ((), '1');
FILE_NAME ('\\\\so-file-01\\Profiles\\halbhuber\\Desktop\\S1ADX0316.STP', '2019-10-29T12:13:36', ('Unknown'), ('Unknown'), 'HarmonyWare STEP v2.0.6', 'HarmonyWare Translators', '');
FILE_SCHEMA (('CONFIG_CONTROL_DESIGN'));
ENDSEC;

DATA;
#1 = CARTESIAN_POINT ('', (15., 0., 1.41706952525197));
#2 = VERTEX_POINT ('', #1);
#3 = CARTESIAN_POINT ('', (9.18485099360515E-16, 15., 1.41706952525197));
#4 = VERTEX_POINT ('', #3);
#5 = CARTESIAN_POINT ('', (15., 0., 1.41706952525197));
#6 = CARTESIAN_POINT ('', (15., 15., 1.41706952525197));
#7 = CARTESIAN_POINT ('', (9.18485099360515E-16, 15., 1.41706952525197));
#8 = (
   BOUNDED_CURVE ()
   B_SPLINE_CURVE (2, (#5, #6, #7), .UNSPECIFIED., .F., .U.)
   B_SPLINE_CURVE_WITH_KNOTS ((3, 3), (0., 1.5707963267949), .UNSPECIFIED.)
   CURVE ()
   GEOMETRIC_REPRESENTATION_ITEM ()
   RATIONAL_B_SPLINE_CURVE ((1., 0.707106781186548, 1.))
   REPRESENTATION_ITEM ('')
);
#9 = EDGE_CURVE ('', #2, #4, #8, .T.);
#10 = ORIENTED_EDGE ('', *, *, #9, .T.);
#11 = CARTESIAN_POINT ('', (-15., 1.83697019872103E-15, 1.41706952525197));
#12 = VERTEX_POINT ('', #11);
#13 = CARTESIAN_POINT ('', (9.18485099360515E-16, 15., 1.41706952525197));
#14 = CARTESIAN_POINT ('', (-15., 15., 1.41706952525197));
#15 = CARTESIAN_POINT ('', (-15., 1.83697019872103E-15, 1.41706952525197));
#16 = (
   BOUNDED_CURVE ()
   B_SPLINE_CURVE (2, (#13, #14, #15), .UNSPECIFIED., .F., .U.)
   B_SPLINE_CURVE_WITH_KNOTS ((3, 3), (1.5707963267949, 3.14159265358979), .UNSPECIFIED.)
   CURVE ()
   GEOMETRIC_REPRESENTATION_ITEM ()
   RATIONAL_B_SPLINE_CURVE ((1., 0.707106781186548, 1.))
   REPRESENTATION_ITEM ('')
);
#17 = EDGE_CURVE ('', #4, #12, #16, .T.);
#18 = ORIENTED_EDGE ('', *, *, #17, .T.);
#19 = CARTESIAN_POINT ('', (-15., 1.83697019872103E-15, 9.28689530943496));
#20 = VERTEX_POINT ('', #19);
#21 = CARTESIAN_POINT ('', (-15., 1.83697019872103E-15, 1.41706952525197));
#22 = CARTESIAN_POINT ('', (-15., 1.83697019872103E-15, 9.28689530943496));
#23 = B_SPLINE_CURVE_WITH_KNOTS ('', 1, (#21, #22), .UNSPECIFIED., .F., .U., (2, 2), (0., 1.), .UNSPECIFIED.);
#24 = EDGE_CURVE ('', #12, #20, #23, .T.);
#25 = ORIENTED_EDGE ('', *, *, #24, .T.);
#26 = CARTESIAN_POINT ('', (15., 0., 9.28689530943496));
#27 = VERTEX_POINT ('', #26);
#28 = CARTESIAN_POINT ('', (15., 0., 9.28689530943496));
#29 = CARTESIAN_POINT ('', (15., 15., 9.28689530943496));
#30 = CARTESIAN_POINT ('', (9.18485099360515E-16, 15., 9.28689530943496));
#31 = CARTESIAN_POINT ('', (-15., 15., 9.28689530943496));
#32 = CARTESIAN_POINT ('', (-15., 1.83697019872103E-15, 9.28689530943496));
#33 = (
   BOUNDED_CURVE ()
   B_SPLINE_CURVE (2, (#28, #29, #30, #31, #32), .UNSPECIFIED., .F., .U.)
   B_SPLINE_CURVE_WITH_KNOTS ((3, 2, 3), (0., 1.5707963267949, 3.14159265358979), .UNSPECIFIED.)
   CURVE ()
   GEOMETRIC_REPRESENTATION_ITEM ()
   RATIONAL_B_SPLINE_CURVE ((1., 0.707106781186548, 1., 0.707106781186548, 1.))
   REPRESENTATION_ITEM ('')
);
#34 = EDGE_CURVE ('', #27, #20, #33, .T.);
#35 = ORIENTED_EDGE ('', *, *, #34, .F.);
#36 = CARTESIAN_POINT ('', (15., 0., 1.41706952525197));
#37 = CARTESIAN_POINT ('', (15., 0., 9.28689530943496));
#38 = B_SPLINE_CURVE_WITH_KNOTS ('', 1, (#36, #37), .UNSPECIFIED., .F., .U., (2, 2), (0., 1.), .UNSPECIFIED.);
#39 = EDGE_CURVE ('', #2, #27, #38, .T.);
#40 = ORIENTED_EDGE ('', *, *, #39, .F.);
#41 = EDGE_LOOP ('', (#10, #18, #25, #35, #40));
#42 = FACE_OUTER_BOUND ('', #41, .T.);
#43 = CARTESIAN_POINT ('', (0., -4.44089209850063E-15, 1.41706952525197));
#44 = DIRECTION ('', (1.48029736616688E-17, 4.38256058456118E-33, 1.));
#45 = DIRECTION ('', (1., 2.96059473233375E-16, -1.48029736616688E-17));
#46 = AXIS2_PLACEMENT_3D ('', #43, #44, #45);
#47 = CYLINDRICAL_SURFACE ('', #46, 15.);
#48 = ADVANCED_FACE ('', (#42), #47, .T.);
#49 = CARTESIAN_POINT ('', (-15., 1.83697019872103E-15, 1.41706952525197));
#50 = CARTESIAN_POINT ('', (-15., -15., 1.41706952525197));
#51 = CARTESIAN_POINT ('', (-2.75545529808154E-15, -15., 1.41706952525197));
#52 = CARTESIAN_POINT ('', (15., -15., 1.41706952525197));
#53 = CARTESIAN_POINT ('', (15., -3.67394039744206E-15, 1.41706952525197));
#54 = (
   BOUNDED_CURVE ()
   B_SPLINE_CURVE (2, (#49, #50, #51, #52, #53), .UNSPECIFIED., .F., .U.)
   B_SPLINE_CURVE_WITH_KNOTS ((3, 2, 3), (3.14159265358979, 4.71238898038469, 6.28318530717959), .UNSPECIFIED.)
   CURVE ()
   GEOMETRIC_REPRESENTATION_ITEM ()
   RATIONAL_B_SPLINE_CURVE ((1., 0.707106781186548, 1., 0.707106781186548, 1.))
   REPRESENTATION_ITEM ('')
);
#55 = EDGE_CURVE ('', #12, #2, #54, .T.);
#56 = ORIENTED_EDGE ('', *, *, #55, .T.);
#57 = ORIENTED_EDGE ('', *, *, #39, .T.);
#58 = CARTESIAN_POINT ('', (-15., 1.83697019872103E-15, 9.28689530943496));
#59 = CARTESIAN_POINT ('', (-15., -15., 9.28689530943496));
#60 = CARTESIAN_POINT ('', (-2.75545529808154E-15, -15., 9.28689530943496));
#61 = CARTESIAN_POINT ('', (15., -15., 9.28689530943496));
#62 = CARTESIAN_POINT ('', (15., -3.67394039744206E-15, 9.28689530943496));
#63 = (
   BOUNDED_CURVE ()
   B_SPLINE_CURVE (2, (#58, #59, #60, #61, #62), .UNSPECIFIED., .F., .U.)
   B_SPLINE_CURVE_WITH_KNOTS ((3, 2, 3), (3.14159265358979, 4.71238898038469, 6.28318530717959), .UNSPECIFIED.)
   CURVE ()
   GEOMETRIC_REPRESENTATION_ITEM ()
   RATIONAL_B_SPLINE_CURVE ((1., 0.707106781186548, 1., 0.707106781186548, 1.))
   REPRESENTATION_ITEM ('')
);
#64 = EDGE_CURVE ('', #20, #27, #63, .T.);
#65 = ORIENTED_EDGE ('', *, *, #64, .F.);
#66 = ORIENTED_EDGE ('', *, *, #24, .F.);
#67 = EDGE_LOOP ('', (#56, #57, #65, #66));
#68 = FACE_OUTER_BOUND ('', #67, .T.);
#69 = CARTESIAN_POINT ('', (0., 3.5527136788005E-15, 1.41706952525197));
#70 = DIRECTION ('', (-1.48029736616687E-17, -1.1285871429139E-16, 1.));
#71 = DIRECTION ('', (-1., -1.14382898671965E-16, -1.48029736616688E-17));
#72 = AXIS2_PLACEMENT_3D ('', #69, #70, #71);
#73 = CYLINDRICAL_SURFACE ('', #72, 15.);
#74 = ADVANCED_FACE ('', (#68), #73, .T.);
#75 = CARTESIAN_POINT ('', (0., 0., 0.));
#76 = VERTEX_POINT ('', #75);
#77 = CARTESIAN_POINT ('', (0., 0., 0.));
#78 = CARTESIAN_POINT ('', (1.57772181044202E-30, 1.66776877969721, 0.));
#79 = CARTESIAN_POINT ('', (0., 4.59032910763653, 0.0920807158975672));
#80 = CARTESIAN_POINT ('', (0., 8.91740087770161, 0.46681870973317));
#81 = CARTESIAN_POINT ('', (0., 11.8296186961279, 0.865660504570333));
#82 = CARTESIAN_POINT ('', (1.57772181044202E-30, 13.5419872097487, 1.15407030165524));
#83 = CARTESIAN_POINT ('', (1.57772181044202E-30, 13.9584424890067, 1.22676788232785));
#84 = CARTESIAN_POINT ('', (0., 14.1667926582022, 1.26360226039866));
#85 = CARTESIAN_POINT ('', (0., 14.4532004314455, 1.31583404791039));
#86 = CARTESIAN_POINT ('', (1.57772181044202E-30, 14.71389114477, 1.361802399759));
#87 = CARTESIAN_POINT ('', (0., 14.9208846385219, 1.40958354248288));
#88 = CARTESIAN_POINT ('', (1.57772181044202E-30, 15., 1.41706952525197));
#89 = B_SPLINE_CURVE_WITH_KNOTS ('', 3, (#77, #78, #79, #80, #81, #82, #83, #84, #85, #86, #87, #88), .UNSPECIFIED., .F., .U., (4, 1, 1, 1, 1, 1, 1, 1, 1, 4), (0., 0.331590513983877, 0.581071065827948, 0.86330284135852, 0.915809289970911, 0.926320902465029, 0.947354876843045, 0.957877238726943, 0.98419980030542, 1.), .UNSPECIFIED.);
#90 = EDGE_CURVE ('', #76, #4, #89, .T.);
#91 = ORIENTED_EDGE ('', *, *, #90, .T.);
#92 = ORIENTED_EDGE ('', *, *, #9, .F.);
#93 = ORIENTED_EDGE ('', *, *, #55, .F.);
#94 = ORIENTED_EDGE ('', *, *, #17, .F.);
#95 = ORIENTED_EDGE ('', *, *, #90, .F.);
#96 = EDGE_LOOP ('', (#91, #92, #93, #94, #95));
#97 = FACE_OUTER_BOUND ('', #96, .T.);
#98 = CARTESIAN_POINT ('', (1.57772181044202E-30, 15., 1.41706952525197));
#99 = CARTESIAN_POINT ('', (-15., 15., 1.41706952525196));
#100 = CARTESIAN_POINT ('', (-15., 1.3519516428856E-14, 1.41706952525196));
#101 = CARTESIAN_POINT ('', (-15., -15., 1.41706952525196));
#102 = CARTESIAN_POINT ('', (-2.3153252271524E-14, -15., 1.41706952525197));
#103 = CARTESIAN_POINT ('', (15., -15., 1.41706952525197));
#104 = CARTESIAN_POINT ('', (15., -1.1470706041389E-14, 1.41706952525197));
#105 = CARTESIAN_POINT ('', (15., 15., 1.41706952525197));
#106 = CARTESIAN_POINT ('', (1.57772181044202E-30, 15., 1.41706952525197));
#107 = CARTESIAN_POINT ('', (0., 14.9208846385219, 1.40958354248288));
#108 = CARTESIAN_POINT ('', (-14.9208846385219, 14.9208846385219, 1.40958354248288));
#109 = CARTESIAN_POINT ('', (-14.9208846385219, 1.35142948477796E-14, 1.40958354248288));
#110 = CARTESIAN_POINT ('', (-14.9208846385219, -14.9208846385219, 1.40958354248288));
#111 = CARTESIAN_POINT ('', (-2.31428091093711E-14, -14.9208846385219, 1.40958354248288));
#112 = CARTESIAN_POINT ('', (14.9208846385219, -14.9208846385219, 1.40958354248288));
#113 = CARTESIAN_POINT ('', (14.9208846385219, -1.14557956228928E-14, 1.40958354248288));
#114 = CARTESIAN_POINT ('', (14.9208846385219, 14.9208846385219, 1.40958354248288));
#115 = CARTESIAN_POINT ('', (0., 14.9208846385219, 1.40958354248288));
#116 = CARTESIAN_POINT ('', (1.57772181044202E-30, 14.71389114477, 1.361802399759));
#117 = CARTESIAN_POINT ('', (-14.71389114477, 14.71389114477, 1.361802399759));
#118 = CARTESIAN_POINT ('', (-14.71389114477, 1.34992128194008E-14, 1.361802399759));
#119 = CARTESIAN_POINT ('', (-14.71389114477, -14.71389114477, 1.361802399759));
#120 = CARTESIAN_POINT ('', (-2.31126450526136E-14, -14.71389114477, 1.361802399759));
#121 = CARTESIAN_POINT ('', (14.71389114477, -14.71389114477, 1.361802399759));
#122 = CARTESIAN_POINT ('', (14.71389114477, -1.14153642025573E-14, 1.361802399759));
#123 = CARTESIAN_POINT ('', (14.71389114477, 14.71389114477, 1.361802399759));
#124 = CARTESIAN_POINT ('', (1.57772181044202E-30, 14.71389114477, 1.361802399759));
#125 = CARTESIAN_POINT ('', (0., 14.4532004314455, 1.31583404791039));
#126 = CARTESIAN_POINT ('', (-14.4532004314455, 14.4532004314455, 1.31583404791039));
#127 = CARTESIAN_POINT ('', (-14.4532004314455, 1.34809341175159E-14, 1.31583404791039));
#128 = CARTESIAN_POINT ('', (-14.4532004314455, -14.4532004314455, 1.31583404791039));
#129 = CARTESIAN_POINT ('', (-2.30760876488438E-14, -14.4532004314455, 1.31583404791039));
#130 = CARTESIAN_POINT ('', (14.4532004314455, -14.4532004314455, 1.31583404791039));
#131 = CARTESIAN_POINT ('', (14.4532004314455, -1.13651600959084E-14, 1.31583404791039));
#132 = CARTESIAN_POINT ('', (14.4532004314455, 14.4532004314455, 1.31583404791039));
#133 = CARTESIAN_POINT ('', (0., 14.4532004314455, 1.31583404791039));
#134 = CARTESIAN_POINT ('', (0., 14.1667926582022, 1.26360226039866));
#135 = CARTESIAN_POINT ('', (-14.1667926582022, 14.1667926582022, 1.26360226039866));
#136 = CARTESIAN_POINT ('', (-14.1667926582022, 1.34607651324621E-14, 1.26360226039866));
#137 = CARTESIAN_POINT ('', (-14.1667926582022, -14.1667926582022, 1.26360226039866));
#138 = CARTESIAN_POINT ('', (-2.30357496787362E-14, -14.1667926582022, 1.26360226039866));
#139 = CARTESIAN_POINT ('', (14.1667926582022, -14.1667926582022, 1.26360226039866));
#140 = CARTESIAN_POINT ('', (14.1667926582022, -1.13099162745792E-14, 1.26360226039866));
#141 = CARTESIAN_POINT ('', (14.1667926582022, 14.1667926582022, 1.26360226039866));
#142 = CARTESIAN_POINT ('', (0., 14.1667926582022, 1.26360226039866));
#143 = CARTESIAN_POINT ('', (1.57772181044202E-30, 13.9584424890067, 1.22676788232785));
#144 = CARTESIAN_POINT ('', (-13.9584424890067, 13.9584424890067, 1.22676788232785));
#145 = CARTESIAN_POINT ('', (-13.9584424890067, 1.34461515568072E-14, 1.22676788232785));
#146 = CARTESIAN_POINT ('', (-13.9584424890067, -13.9584424890067, 1.22676788232785));
#147 = CARTESIAN_POINT ('', (-2.30065225274264E-14, -13.9584424890067, 1.22676788232785));
#148 = CARTESIAN_POINT ('', (13.9584424890066, -13.9584424890067, 1.22676788232785));
#149 = CARTESIAN_POINT ('', (13.9584424890067, -1.12697871621436E-14, 1.22676788232785));
#150 = CARTESIAN_POINT ('', (13.9584424890067, 13.9584424890067, 1.22676788232785));
#151 = CARTESIAN_POINT ('', (1.57772181044202E-30, 13.9584424890067, 1.22676788232785));
#152 = CARTESIAN_POINT ('', (1.57772181044202E-30, 13.5419872097487, 1.15407030165524));
#153 = CARTESIAN_POINT ('', (-13.5419872097487, 13.5419872097487, 1.15407030165524));
#154 = CARTESIAN_POINT ('', (-13.5419872097487, 1.34169883412688E-14, 1.15407030165524));
#155 = CARTESIAN_POINT ('', (-13.5419872097488, -13.5419872097487, 1.15407030165524));
#156 = CARTESIAN_POINT ('', (-2.29481960963495E-14, -13.5419872097487, 1.15407030165524));
#157 = CARTESIAN_POINT ('', (13.5419872097487, -13.5419872097487, 1.15407030165524));
#158 = CARTESIAN_POINT ('', (13.5419872097487, -1.1189622884132E-14, 1.15407030165524));
#159 = CARTESIAN_POINT ('', (13.5419872097487, 13.5419872097487, 1.15407030165524));
#160 = CARTESIAN_POINT ('', (1.57772181044202E-30, 13.5419872097487, 1.15407030165524));
#161 = CARTESIAN_POINT ('', (0., 11.8296186961279, 0.865660504570333));
#162 = CARTESIAN_POINT ('', (-11.8296186961279, 11.8296186961279, 0.865660504570333));
#163 = CARTESIAN_POINT ('', (-11.8296186961279, 1.32976052098832E-14, 0.865660504570333));
#164 = CARTESIAN_POINT ('', (-11.8296186961279, -11.8296186961279, 0.865660504570333));
#165 = CARTESIAN_POINT ('', (-2.27094298335784E-14, -11.8296186961279, 0.865660504570333));
#166 = CARTESIAN_POINT ('', (11.8296186961279, -11.8296186961279, 0.865660504570334));
#167 = CARTESIAN_POINT ('', (11.8296186961279, -1.08605350908299E-14, 0.865660504570334));
#168 = CARTESIAN_POINT ('', (11.8296186961279, 11.8296186961279, 0.865660504570334));
#169 = CARTESIAN_POINT ('', (0., 11.8296186961279, 0.865660504570333));
#170 = CARTESIAN_POINT ('', (0., 8.91740087770161, 0.46681870973317));
#171 = CARTESIAN_POINT ('', (-8.91740087770161, 8.91740087770162, 0.466818709733169));
#172 = CARTESIAN_POINT ('', (-8.91740087770162, 1.30991886602057E-14, 0.466818709733169));
#173 = CARTESIAN_POINT ('', (-8.91740087770163, -8.9174008777016, 0.466818709733169));
#174 = CARTESIAN_POINT ('', (-2.23125967342233E-14, -8.91740087770161, 0.46681870973317));
#175 = CARTESIAN_POINT ('', (8.91740087770159, -8.91740087770162, 0.46681870973317));
#176 = CARTESIAN_POINT ('', (8.9174008777016, -1.03054747181767E-14, 0.46681870973317));
#177 = CARTESIAN_POINT ('', (8.91740087770161, 8.9174008777016, 0.46681870973317));
#178 = CARTESIAN_POINT ('', (0., 8.91740087770161, 0.46681870973317));
#179 = CARTESIAN_POINT ('', (0., 4.59032910763653, 0.0920807158975672));
#180 = CARTESIAN_POINT ('', (-4.59032910763653, 4.59032910763655, 0.0920807158975669));
#181 = CARTESIAN_POINT ('', (-4.59032910763654, 1.28153517016093E-14, 0.0920807158975669));
#182 = CARTESIAN_POINT ('', (-4.59032910763655, -4.59032910763652, 0.0920807158975669));
#183 = CARTESIAN_POINT ('', (-2.17449228170306E-14, -4.59032910763653, 0.0920807158975672));
#184 = CARTESIAN_POINT ('', (4.59032910763651, -4.59032910763654, 0.0920807158975674));
#185 = CARTESIAN_POINT ('', (4.59032910763652, -9.49172430029126E-15, 0.0920807158975674));
#186 = CARTESIAN_POINT ('', (4.59032910763653, 4.59032910763652, 0.0920807158975674));
#187 = CARTESIAN_POINT ('', (0., 4.59032910763653, 0.0920807158975672));
#188 = CARTESIAN_POINT ('', (1.57772181044202E-30, 1.66776877969721, 0.));
#189 = CARTESIAN_POINT ('', (-1.66776877969721, 1.66776877969722, -8.40263248385963E-17));
#190 = CARTESIAN_POINT ('', (-1.66776877969722, 1.26317572393656E-14, -8.40263248385963E-17));
#191 = CARTESIAN_POINT ('', (-1.66776877969723, -1.66776877969719, -8.40263248385963E-17));
#192 = CARTESIAN_POINT ('', (-2.13777338925432E-14, -1.66776877969721, -1.02902569757703E-32));
#193 = CARTESIAN_POINT ('', (1.66776877969719, -1.66776877969722, 8.40263248385963E-17));
#194 = CARTESIAN_POINT ('', (1.6677687796972, -8.95021942295498E-15, 8.40263248385963E-17));
#195 = CARTESIAN_POINT ('', (1.66776877969721, 1.6677687796972, 8.40263248385963E-17));
#196 = CARTESIAN_POINT ('', (1.57772181044202E-30, 1.66776877969721, 0.));
#197 = CARTESIAN_POINT ('', (0., 0., 0.));
#198 = CARTESIAN_POINT ('', (0., 0., 0.));
#199 = CARTESIAN_POINT ('', (0., 0., 0.));
#200 = CARTESIAN_POINT ('', (0., 0., 0.));
#201 = CARTESIAN_POINT ('', (0., 0., 0.));
#202 = CARTESIAN_POINT ('', (0., 0., 0.));
#203 = CARTESIAN_POINT ('', (0., 0., 0.));
#204 = CARTESIAN_POINT ('', (0., 0., 0.));
#205 = CARTESIAN_POINT ('', (0., 0., 0.));
#206 = (
   BOUNDED_SURFACE ()
   B_SPLINE_SURFACE (3, 2, ((#98, #99, #100, #101, #102, #103, #104, #105, #106), (#107, #108, #109, #110, #111, #112, #113, #114, #115), (#116, #117, #118, #119, #120, #121, #122, #123, #124), (#125, #126, #127, #128, #129, #130, #131, #132, #133), (#134, #135, #136, #137, #138, #139, #140, #141, #142), (#143, #144, #145, #146, #147, #148, #149, #150, #151), (#152, #153, #154, #155, #156, #157, #158, #159, #160), (#161, #162, #163, #164, #165, #166, #167, #168, #169), (#170, #171, #172, #173, #174, #175, #176, #177, #178), (#179, #180, #181, #182, #183, #184, #185, #186, #187), (#188, #189, #190, #191, #192, #193, #194, #195, #196), (#197, #198, #199, #200, #201, #202, #203, #204, #205)), .UNSPECIFIED., .F., .T., .U.)
   B_SPLINE_SURFACE_WITH_KNOTS ((4, 1, 1, 1, 1, 1, 1, 1, 1, 4), (3, 2, 2, 2, 3), (0., 0.0158001996945796, 0.0421227612730571, 0.0526451231569551, 0.0736790975349711, 0.0841907100290892, 0.13669715864148, 0.418928934172052, 0.668409486016123, 1.), (0., 90., 180., 270., 360.), .UNSPECIFIED.)
   SURFACE ()
   GEOMETRIC_REPRESENTATION_ITEM ()
   RATIONAL_B_SPLINE_SURFACE (((1., 0.707106781186548, 1., 0.707106781186548, 1., 0.707106781186548, 1., 0.707106781186548, 1.), (1., 0.707106781186548, 1., 0.707106781186548, 1., 0.707106781186548, 1., 0.707106781186548, 1.), (1., 0.707106781186548, 1., 0.707106781186548, 1., 0.707106781186548, 1., 0.707106781186548, 1.), (1., 0.707106781186548, 1., 0.707106781186548, 1., 0.707106781186548, 1., 0.707106781186548, 1.), (1., 0.707106781186548, 1., 0.707106781186548, 1., 0.707106781186548, 1., 0.707106781186548, 1.), (1., 0.707106781186548, 1., 0.707106781186548, 1., 0.707106781186548, 1., 0.707106781186548, 1.), (1., 0.707106781186548, 1., 0.707106781186548, 1., 0.707106781186548, 1., 0.707106781186548, 1.), (1., 0.707106781186548, 1., 0.707106781186548, 1., 0.707106781186548, 1., 0.707106781186548, 1.), (1., 0.707106781186548, 1., 0.707106781186548, 1., 0.707106781186548, 1., 0.707106781186548, 1.), (1., 0.707106781186548, 1., 0.707106781186548, 1., 0.707106781186548, 1., 0.707106781186548, 1.), (1., 0.707106781186548, 1., 0.707106781186548, 1., 0.707106781186548, 1., 0.707106781186548, 1.), (1., 0.707106781186548, 1., 0.707106781186548, 1., 0.707106781186548, 1., 0.707106781186548, 1.)))
   REPRESENTATION_ITEM ('')
);
#207 = ADVANCED_FACE ('', (#97), #206, .T.);
#208 = ORIENTED_EDGE ('', *, *, #34, .T.);
#209 = ORIENTED_EDGE ('', *, *, #64, .T.);
#210 = EDGE_LOOP ('', (#208, #209));
#211 = FACE_OUTER_BOUND ('', #210, .T.);
#212 = CARTESIAN_POINT ('', (-5.6843418860808E-14, 0., -418.168));
#213 = DIRECTION ('', (-1., 2.71754529739988E-16, -2.34851220690981E-16));
#214 = DIRECTION ('', (-2.71754529739988E-16, -1., 0.));
#215 = AXIS2_PLACEMENT_3D ('', #212, #213, #214);
#216 = SPHERICAL_SURFACE ('', #215, 427.718);
#217 = ADVANCED_FACE ('', (#211), #216, .T.);
#218 = CLOSED_SHELL ('', (#48, #74, #207, #217));
#219 = MANIFOLD_SOLID_BREP ('', #218);
#220 = PRESENTATION_LAYER_ASSIGNMENT ('Level 0', 'Level 0', (#219));
#221 = (
   LENGTH_UNIT ()
   NAMED_UNIT (*)
   SI_UNIT (.MILLI., .METRE.)
);
#222 = (
   NAMED_UNIT (*)
   SI_UNIT ($, .STERADIAN.)
   SOLID_ANGLE_UNIT ()
);
#223 = (
   NAMED_UNIT (*)
   SI_UNIT ($, .RADIAN.)
   PLANE_ANGLE_UNIT ()
);
#224 = UNCERTAINTY_MEASURE_WITH_UNIT (LENGTH_MEASURE(0.0001), #221, 'DISTANCE_ACCURACY_VALUE', '');
#225 = (
   GEOMETRIC_REPRESENTATION_CONTEXT (3)
   GLOBAL_UNCERTAINTY_ASSIGNED_CONTEXT ((#224))
   GLOBAL_UNIT_ASSIGNED_CONTEXT ((#221, #222, #223))
   REPRESENTATION_CONTEXT ('', '3D')
);
#226 = ADVANCED_BREP_SHAPE_REPRESENTATION ('', (#219), #225);
#227 = APPLICATION_CONTEXT ('configuration controlled 3D designs of mechanical parts and assemblies');
#228 = APPLICATION_PROTOCOL_DEFINITION ('International Standard', 'config_control_design', 1997, #227);
#229 = MECHANICAL_CONTEXT ('', #227, 'mechanical');
#230 = PRODUCT ('NONE', '', '', (#229));
#231 = PERSON_AND_ORGANIZATION_ROLE ('design_owner');
#232 = PERSON ('', '', $, $, $, $);
#233 = ORGANIZATION ($, '', '');
#234 = PERSON_AND_ORGANIZATION (#232, #233);
#235 = CC_DESIGN_PERSON_AND_ORGANIZATION_ASSIGNMENT (#234, #231, (#230));
#236 = PRODUCT_RELATED_PRODUCT_CATEGORY ('detail', $, (#230));
#237 = PRODUCT_DEFINITION_FORMATION_WITH_SPECIFIED_SOURCE ('', '', #230, .NOT_KNOWN.);
#238 = APPROVAL_STATUS ('approved');
#239 = APPROVAL (#238, '');
#240 = CALENDAR_DATE (2019, 29, 10);
#241 = COORDINATED_UNIVERSAL_TIME_OFFSET (0, $, .AHEAD.);
#242 = LOCAL_TIME (12, 13, 36., #241);
#243 = DATE_AND_TIME (#240, #242);
#244 = APPROVAL_DATE_TIME (#243, #239);
#245 = APPROVAL_ROLE ('');
#246 = PERSON ('', '', $, $, $, $);
#247 = ORGANIZATION ($, '', '');
#248 = PERSON_AND_ORGANIZATION (#246, #247);
#249 = APPROVAL_PERSON_ORGANIZATION (#248, #239, #245);
#250 = CC_DESIGN_APPROVAL (#239, (#237));
#251 = PERSON_AND_ORGANIZATION_ROLE ('creator');
#252 = PERSON ('', '', $, $, $, $);
#253 = ORGANIZATION ($, '', '');
#254 = PERSON_AND_ORGANIZATION (#252, #253);
#255 = CC_DESIGN_PERSON_AND_ORGANIZATION_ASSIGNMENT (#254, #251, (#237));
#256 = PERSON_AND_ORGANIZATION_ROLE ('part_supplier');
#257 = PERSON ('', '', $, $, $, $);
#258 = ORGANIZATION ($, '', '');
#259 = PERSON_AND_ORGANIZATION (#257, #258);
#260 = CC_DESIGN_PERSON_AND_ORGANIZATION_ASSIGNMENT (#259, #256, (#237));
#261 = SECURITY_CLASSIFICATION_LEVEL ('unclassified');
#262 = SECURITY_CLASSIFICATION ('', '', #261);
#263 = APPROVAL_STATUS ('approved');
#264 = APPROVAL (#263, '');
#265 = CALENDAR_DATE (2019, 29, 10);
#266 = COORDINATED_UNIVERSAL_TIME_OFFSET (0, $, .AHEAD.);
#267 = LOCAL_TIME (12, 13, 36., #266);
#268 = DATE_AND_TIME (#265, #267);
#269 = APPROVAL_DATE_TIME (#268, #264);
#270 = APPROVAL_ROLE ('');
#271 = PERSON ('', '', $, $, $, $);
#272 = ORGANIZATION ($, '', '');
#273 = PERSON_AND_ORGANIZATION (#271, #272);
#274 = APPROVAL_PERSON_ORGANIZATION (#273, #264, #270);
#275 = CC_DESIGN_APPROVAL (#264, (#262));
#276 = DATE_TIME_ROLE ('classification_date');
#277 = CALENDAR_DATE (2019, 29, 10);
#278 = COORDINATED_UNIVERSAL_TIME_OFFSET (0, $, .AHEAD.);
#279 = LOCAL_TIME (12, 13, 36., #278);
#280 = DATE_AND_TIME (#277, #279);
#281 = CC_DESIGN_DATE_AND_TIME_ASSIGNMENT (#280, #276, (#262));
#282 = PERSON_AND_ORGANIZATION_ROLE ('classification_officer');
#283 = PERSON ('', '', $, $, $, $);
#284 = ORGANIZATION ($, '', '');
#285 = PERSON_AND_ORGANIZATION (#283, #284);
#286 = CC_DESIGN_PERSON_AND_ORGANIZATION_ASSIGNMENT (#285, #282, (#262));
#287 = CC_DESIGN_SECURITY_CLASSIFICATION (#262, (#237));
#288 = DESIGN_CONTEXT ('', #227, 'design');
#289 = PRODUCT_DEFINITION ('', '', #237, #288);
#290 = APPROVAL_STATUS ('approved');
#291 = APPROVAL (#290, '');
#292 = CALENDAR_DATE (2019, 29, 10);
#293 = COORDINATED_UNIVERSAL_TIME_OFFSET (0, $, .AHEAD.);
#294 = LOCAL_TIME (12, 13, 36., #293);
#295 = DATE_AND_TIME (#292, #294);
#296 = APPROVAL_DATE_TIME (#295, #291);
#297 = APPROVAL_ROLE ('');
#298 = PERSON ('', '', $, $, $, $);
#299 = ORGANIZATION ($, '', '');
#300 = PERSON_AND_ORGANIZATION (#298, #299);
#301 = APPROVAL_PERSON_ORGANIZATION (#300, #291, #297);
#302 = CC_DESIGN_APPROVAL (#291, (#289));
#303 = DATE_TIME_ROLE ('creation_date');
#304 = CALENDAR_DATE (2019, 29, 10);
#305 = COORDINATED_UNIVERSAL_TIME_OFFSET (0, $, .AHEAD.);
#306 = LOCAL_TIME (12, 13, 36., #305);
#307 = DATE_AND_TIME (#304, #306);
#308 = CC_DESIGN_DATE_AND_TIME_ASSIGNMENT (#307, #303, (#289));
#309 = PERSON_AND_ORGANIZATION_ROLE ('creator');
#310 = PERSON ('', '', $, $, $, $);
#311 = ORGANIZATION ($, '', '');
#312 = PERSON_AND_ORGANIZATION (#310, #311);
#313 = CC_DESIGN_PERSON_AND_ORGANIZATION_ASSIGNMENT (#312, #309, (#289));
#314 = PRODUCT_DEFINITION_SHAPE ('', '', #289);
#315 = SHAPE_DEFINITION_REPRESENTATION (#314, #226);
ENDSEC;
END-ISO-10303-21;
