ISO-10303-21;
HEADER;
FILE_DESCRIPTION ((), '1');
FILE_NAME ('T:\\CAD\\AsphXren\\S1ADX0325.STP', '2013-01-22T09:01:30', ('Unknown'), ('Unknown'), 'HarmonyWare STEP v1.5.0', 'HarmonyWare Translators', '');
FILE_SCHEMA (('CONFIG_CONTROL_DESIGN'));
ENDSEC;

DATA;
#10 = CARTESIAN_POINT ('', (19.05, 0., 1.28498176891538));
#20 = VERTEX_POINT ('', #10);
#30 = CARTESIAN_POINT ('', (0., 0., 0.));
#40 = VERTEX_POINT ('', #30);
#50 = CARTESIAN_POINT ('', (19.05, 0., 1.28498176891538));
#60 = CARTESIAN_POINT ('', (9.52499999999999, 0., 0.));
#70 = CARTESIAN_POINT ('', (0., 0., 0.));
#80 = (
   BOUNDED_CURVE ()
   B_SPLINE_CURVE (2, (#50, #60, #70), .UNSPECIFIED., .F., .U.)
   B_SPLINE_CURVE_WITH_KNOTS ((3, 3), (0.940704579580093, 1.), .UNSPECIFIED.)
   CURVE ()
   GEOMETRIC_REPRESENTATION_ITEM ()
   RATIONAL_B_SPLINE_CURVE ((1., 1., 1.))
   REPRESENTATION_ITEM ('')
);
#90 = EDGE_CURVE ('', #20, #40, #80, .T.);
#100 = ORIENTED_EDGE ('', *, *, #90, .T.);
#110 = ORIENTED_EDGE ('', *, *, #90, .F.);
#120 = CARTESIAN_POINT ('', (19.05, 0., 1.28498176891538));
#130 = CARTESIAN_POINT ('', (19.05, 19.05, 1.28498176891538));
#140 = CARTESIAN_POINT ('', (1.16647607618785E-15, 19.05, 1.28498176891538));
#150 = CARTESIAN_POINT ('', (-19.05, 19.05, 1.28498176891538));
#160 = CARTESIAN_POINT ('', (-19.05, 2.33295215237571E-15, 1.28498176891538));
#170 = CARTESIAN_POINT ('', (-19.05, -19.05, 1.28498176891538));
#180 = CARTESIAN_POINT ('', (-3.49942822856356E-15, -19.05, 1.28498176891538));
#190 = CARTESIAN_POINT ('', (19.05, -19.05, 1.28498176891538));
#200 = CARTESIAN_POINT ('', (19.05, 0., 1.28498176891538));
#210 = (
   BOUNDED_CURVE ()
   B_SPLINE_CURVE (2, (#120, #130, #140, #150, #160, #170, #180, #190, #200), .UNSPECIFIED., .T., .U.)
   B_SPLINE_CURVE_WITH_KNOTS ((3, 2, 2, 2, 3), (0., 1.5707963267949, 3.14159265358979, 4.71238898038469, 6.28318530717959), .UNSPECIFIED.)
   CURVE ()
   GEOMETRIC_REPRESENTATION_ITEM ()
   RATIONAL_B_SPLINE_CURVE ((1., 0.707106781186548, 1., 0.707106781186548, 1., 0.707106781186548, 1., 0.707106781186548, 1.))
   REPRESENTATION_ITEM ('')
);
#220 = EDGE_CURVE ('', #20, #20, #210, .T.);
#230 = ORIENTED_EDGE ('', *, *, #220, .F.);
#240 = EDGE_LOOP ('', (#100, #110, #230));
#250 = FACE_OUTER_BOUND ('', #240, .T.);
#260 = CARTESIAN_POINT ('', (0., 0., 0.));
#270 = CARTESIAN_POINT ('', (160.636351552072, 0., 0.));
#280 = CARTESIAN_POINT ('', (321.272703104143, 0., 365.472463537831));
#290 = CARTESIAN_POINT ('', (0., 0., 0.));
#300 = CARTESIAN_POINT ('', (160.636351552072, 160.636351552072, 0.));
#310 = CARTESIAN_POINT ('', (321.272703104143, 321.272703104143, 365.472463537831));
#320 = CARTESIAN_POINT ('', (0., 0., 0.));
#330 = CARTESIAN_POINT ('', (9.83613968774767E-15, 160.636351552072, 0.));
#340 = CARTESIAN_POINT ('', (1.96722793754953E-14, 321.272703104143, 365.472463537831));
#350 = CARTESIAN_POINT ('', (0., 0., 0.));
#360 = CARTESIAN_POINT ('', (-160.636351552072, 160.636351552072, 0.));
#370 = CARTESIAN_POINT ('', (-321.272703104143, 321.272703104143, 365.472463537831));
#380 = CARTESIAN_POINT ('', (0., 0., 0.));
#390 = CARTESIAN_POINT ('', (-160.636351552072, 1.96722793754953E-14, 0.));
#400 = CARTESIAN_POINT ('', (-321.272703104143, 3.93445587509907E-14, 365.472463537831));
#410 = CARTESIAN_POINT ('', (0., 0., 0.));
#420 = CARTESIAN_POINT ('', (-160.636351552072, -160.636351552072, 0.));
#430 = CARTESIAN_POINT ('', (-321.272703104143, -321.272703104143, 365.472463537831));
#440 = CARTESIAN_POINT ('', (0., 0., 0.));
#450 = CARTESIAN_POINT ('', (-2.9508419063243E-14, -160.636351552072, 0.));
#460 = CARTESIAN_POINT ('', (-5.9016838126486E-14, -321.272703104143, 365.472463537831));
#470 = CARTESIAN_POINT ('', (0., 0., 0.));
#480 = CARTESIAN_POINT ('', (160.636351552072, -160.636351552072, 0.));
#490 = CARTESIAN_POINT ('', (321.272703104143, -321.272703104143, 365.472463537831));
#500 = CARTESIAN_POINT ('', (0., 0., 0.));
#510 = CARTESIAN_POINT ('', (160.636351552072, 0., 0.));
#520 = CARTESIAN_POINT ('', (321.272703104143, 0., 365.472463537831));
#530 = (
   BOUNDED_SURFACE ()
   B_SPLINE_SURFACE (2, 2, ((#260, #270, #280), (#290, #300, #310), (#320, #330, #340), (#350, #360, #370), (#380, #390, #400), (#410, #420, #430), (#440, #450, #460), (#470, #480, #490), (#500, #510, #520)), .UNSPECIFIED., .T., .F., .U.)
   B_SPLINE_SURFACE_WITH_KNOTS ((3, 2, 2, 2, 3), (3, 3), (0., 0.25, 0.5, 0.75, 1.), (0., 1.), .UNSPECIFIED.)
   SURFACE ()
   GEOMETRIC_REPRESENTATION_ITEM ()
   RATIONAL_B_SPLINE_SURFACE (((1., 1., 1.), (0.707106781186548, 0.707106781186548, 0.707106781186548), (1., 1., 1.), (0.707106781186548, 0.707106781186548, 0.707106781186548), (1., 1., 1.), (0.707106781186548, 0.707106781186548, 0.707106781186548), (1., 1., 1.), (0.707106781186548, 0.707106781186548, 0.707106781186548), (1., 1., 1.)))
   REPRESENTATION_ITEM ('')
);
#540 = ADVANCED_FACE ('', (#250), #530, .T.);
#550 = CARTESIAN_POINT ('', (19.05, 0., 8.56476534325968));
#560 = VERTEX_POINT ('', #550);
#570 = CARTESIAN_POINT ('', (19.05, 0., 8.56476534325968));
#580 = CARTESIAN_POINT ('', (19.05, 19.05, 8.56476534325968));
#590 = CARTESIAN_POINT ('', (1.16647607618785E-15, 19.05, 8.56476534325968));
#600 = CARTESIAN_POINT ('', (-19.05, 19.05, 8.56476534325968));
#610 = CARTESIAN_POINT ('', (-19.05, 2.33295215237571E-15, 8.56476534325968));
#620 = CARTESIAN_POINT ('', (-19.05, -19.05, 8.56476534325968));
#630 = CARTESIAN_POINT ('', (-3.49942822856356E-15, -19.05, 8.56476534325968));
#640 = CARTESIAN_POINT ('', (19.05, -19.05, 8.56476534325968));
#650 = CARTESIAN_POINT ('', (19.05, 0., 8.56476534325968));
#660 = (
   BOUNDED_CURVE ()
   B_SPLINE_CURVE (2, (#570, #580, #590, #600, #610, #620, #630, #640, #650), .UNSPECIFIED., .T., .U.)
   B_SPLINE_CURVE_WITH_KNOTS ((3, 2, 2, 2, 3), (0., 1.5707963267949, 3.14159265358979, 4.71238898038469, 6.28318530717959), .UNSPECIFIED.)
   CURVE ()
   GEOMETRIC_REPRESENTATION_ITEM ()
   RATIONAL_B_SPLINE_CURVE ((1., 0.707106781186548, 1., 0.707106781186548, 1., 0.707106781186548, 1., 0.707106781186548, 1.))
   REPRESENTATION_ITEM ('')
);
#670 = EDGE_CURVE ('', #560, #560, #660, .T.);
#680 = ORIENTED_EDGE ('', *, *, #670, .T.);
#690 = EDGE_LOOP ('', (#680));
#700 = FACE_OUTER_BOUND ('', #690, .T.);
#710 = CARTESIAN_POINT ('', (-2.27373675443232E-13, 1.13686837721616E-13, -532.534));
#720 = DIRECTION ('', (-1., 0., 0.));
#730 = DIRECTION ('', (0., -1., 4.29357240037856E-16));
#740 = AXIS2_PLACEMENT_3D ('', #710, #720, #730);
#750 = SPHERICAL_SURFACE ('', #740, 541.434);
#760 = ADVANCED_FACE ('', (#700), #750, .T.);
#770 = ORIENTED_EDGE ('', *, *, #670, .F.);
#780 = CARTESIAN_POINT ('', (19.05, 0., 1.28498176891538));
#790 = CARTESIAN_POINT ('', (19.05, 0., 8.56476534325968));
#800 = B_SPLINE_CURVE_WITH_KNOTS ('', 1, (#780, #790), .UNSPECIFIED., .F., .U., (2, 2), (0., 1.), .UNSPECIFIED.);
#810 = EDGE_CURVE ('', #20, #560, #800, .T.);
#820 = ORIENTED_EDGE ('', *, *, #810, .F.);
#830 = ORIENTED_EDGE ('', *, *, #220, .T.);
#840 = ORIENTED_EDGE ('', *, *, #810, .T.);
#850 = EDGE_LOOP ('', (#770, #820, #830, #840));
#860 = FACE_OUTER_BOUND ('', #850, .T.);
#870 = CARTESIAN_POINT ('', (-4.66293670342566E-15, -8.88178419700125E-16, 1.28498176891538));
#880 = DIRECTION ('', (0., 0., 1.));
#890 = DIRECTION ('', (1., 4.66235390918701E-17, 0.));
#900 = AXIS2_PLACEMENT_3D ('', #870, #880, #890);
#910 = CYLINDRICAL_SURFACE ('', #900, 19.05);
#920 = ADVANCED_FACE ('', (#860), #910, .T.);
#930 = CLOSED_SHELL ('', (#540, #760, #920));
#940 = MANIFOLD_SOLID_BREP ('', #930);
#950 = (
   LENGTH_UNIT ()
   NAMED_UNIT (*)
   SI_UNIT (.MILLI., .METRE.)
);
#960 = (
   NAMED_UNIT (*)
   SI_UNIT ($, .STERADIAN.)
   SOLID_ANGLE_UNIT ()
);
#970 = (
   NAMED_UNIT (*)
   SI_UNIT ($, .RADIAN.)
   PLANE_ANGLE_UNIT ()
);
#980 = UNCERTAINTY_MEASURE_WITH_UNIT (LENGTH_MEASURE(0.0001), #950, 'DISTANCE_ACCURACY_VALUE', '');
#990 = (
   GEOMETRIC_REPRESENTATION_CONTEXT (3)
   GLOBAL_UNCERTAINTY_ASSIGNED_CONTEXT ((#980))
   GLOBAL_UNIT_ASSIGNED_CONTEXT ((#950, #960, #970))
   REPRESENTATION_CONTEXT ('', '3D')
);
#1000 = ADVANCED_BREP_SHAPE_REPRESENTATION ('', (#940), #990);
#1010 = APPLICATION_CONTEXT ('configuration controlled 3D designs of mechanical parts and assemblies');
#1020 = APPLICATION_PROTOCOL_DEFINITION ('International Standard', 'config_control_design', 1997, #1010);
#1030 = MECHANICAL_CONTEXT ('', #1010, 'mechanical');
#1040 = PRODUCT ('product-name', '', '', (#1030));
#1050 = PERSON_AND_ORGANIZATION_ROLE ('design_owner');
#1060 = PERSON ('', '', $, $, $, $);
#1070 = ORGANIZATION ($, '', '');
#1080 = PERSON_AND_ORGANIZATION (#1060, #1070);
#1090 = CC_DESIGN_PERSON_AND_ORGANIZATION_ASSIGNMENT (#1080, #1050, (#1040));
#1100 = PRODUCT_RELATED_PRODUCT_CATEGORY ('detail', $, (#1040));
#1110 = PRODUCT_DEFINITION_FORMATION_WITH_SPECIFIED_SOURCE ('', '', #1040, .NOT_KNOWN.);
#1120 = APPROVAL_STATUS ('approved');
#1130 = APPROVAL (#1120, '');
#1140 = CALENDAR_DATE (2013, 22, 1);
#1150 = COORDINATED_UNIVERSAL_TIME_OFFSET (0, $, .AHEAD.);
#1160 = LOCAL_TIME (9, 1, 30., #1150);
#1170 = DATE_AND_TIME (#1140, #1160);
#1180 = APPROVAL_DATE_TIME (#1170, #1130);
#1190 = APPROVAL_ROLE ('');
#1200 = PERSON ('', '', $, $, $, $);
#1210 = ORGANIZATION ($, '', '');
#1220 = PERSON_AND_ORGANIZATION (#1200, #1210);
#1230 = APPROVAL_PERSON_ORGANIZATION (#1220, #1130, #1190);
#1240 = CC_DESIGN_APPROVAL (#1130, (#1110));
#1250 = PERSON_AND_ORGANIZATION_ROLE ('creator');
#1260 = PERSON ('', '', $, $, $, $);
#1270 = ORGANIZATION ($, '', '');
#1280 = PERSON_AND_ORGANIZATION (#1260, #1270);
#1290 = CC_DESIGN_PERSON_AND_ORGANIZATION_ASSIGNMENT (#1280, #1250, (#1110));
#1300 = PERSON_AND_ORGANIZATION_ROLE ('part_supplier');
#1310 = PERSON ('', '', $, $, $, $);
#1320 = ORGANIZATION ($, '', '');
#1330 = PERSON_AND_ORGANIZATION (#1310, #1320);
#1340 = CC_DESIGN_PERSON_AND_ORGANIZATION_ASSIGNMENT (#1330, #1300, (#1110));
#1350 = SECURITY_CLASSIFICATION_LEVEL ('unclassified');
#1360 = SECURITY_CLASSIFICATION ('', '', #1350);
#1370 = APPROVAL_STATUS ('approved');
#1380 = APPROVAL (#1370, '');
#1390 = CALENDAR_DATE (2013, 22, 1);
#1400 = COORDINATED_UNIVERSAL_TIME_OFFSET (0, $, .AHEAD.);
#1410 = LOCAL_TIME (9, 1, 30., #1400);
#1420 = DATE_AND_TIME (#1390, #1410);
#1430 = APPROVAL_DATE_TIME (#1420, #1380);
#1440 = APPROVAL_ROLE ('');
#1450 = PERSON ('', '', $, $, $, $);
#1460 = ORGANIZATION ($, '', '');
#1470 = PERSON_AND_ORGANIZATION (#1450, #1460);
#1480 = APPROVAL_PERSON_ORGANIZATION (#1470, #1380, #1440);
#1490 = CC_DESIGN_APPROVAL (#1380, (#1360));
#1500 = DATE_TIME_ROLE ('classification_date');
#1510 = CALENDAR_DATE (2013, 22, 1);
#1520 = COORDINATED_UNIVERSAL_TIME_OFFSET (0, $, .AHEAD.);
#1530 = LOCAL_TIME (9, 1, 30., #1520);
#1540 = DATE_AND_TIME (#1510, #1530);
#1550 = CC_DESIGN_DATE_AND_TIME_ASSIGNMENT (#1540, #1500, (#1360));
#1560 = PERSON_AND_ORGANIZATION_ROLE ('classification_officer');
#1570 = PERSON ('', '', $, $, $, $);
#1580 = ORGANIZATION ($, '', '');
#1590 = PERSON_AND_ORGANIZATION (#1570, #1580);
#1600 = CC_DESIGN_PERSON_AND_ORGANIZATION_ASSIGNMENT (#1590, #1560, (#1360));
#1610 = CC_DESIGN_SECURITY_CLASSIFICATION (#1360, (#1110));
#1620 = DESIGN_CONTEXT ('', #1010, 'design');
#1630 = PRODUCT_DEFINITION ('', '', #1110, #1620);
#1640 = APPROVAL_STATUS ('approved');
#1650 = APPROVAL (#1640, '');
#1660 = CALENDAR_DATE (2013, 22, 1);
#1670 = COORDINATED_UNIVERSAL_TIME_OFFSET (0, $, .AHEAD.);
#1680 = LOCAL_TIME (9, 1, 30., #1670);
#1690 = DATE_AND_TIME (#1660, #1680);
#1700 = APPROVAL_DATE_TIME (#1690, #1650);
#1710 = APPROVAL_ROLE ('');
#1720 = PERSON ('', '', $, $, $, $);
#1730 = ORGANIZATION ($, '', '');
#1740 = PERSON_AND_ORGANIZATION (#1720, #1730);
#1750 = APPROVAL_PERSON_ORGANIZATION (#1740, #1650, #1710);
#1760 = CC_DESIGN_APPROVAL (#1650, (#1630));
#1770 = DATE_TIME_ROLE ('creation_date');
#1780 = CALENDAR_DATE (2013, 22, 1);
#1790 = COORDINATED_UNIVERSAL_TIME_OFFSET (0, $, .AHEAD.);
#1800 = LOCAL_TIME (9, 1, 30., #1790);
#1810 = DATE_AND_TIME (#1780, #1800);
#1820 = CC_DESIGN_DATE_AND_TIME_ASSIGNMENT (#1810, #1770, (#1630));
#1830 = PERSON_AND_ORGANIZATION_ROLE ('creator');
#1840 = PERSON ('', '', $, $, $, $);
#1850 = ORGANIZATION ($, '', '');
#1860 = PERSON_AND_ORGANIZATION (#1840, #1850);
#1870 = CC_DESIGN_PERSON_AND_ORGANIZATION_ASSIGNMENT (#1860, #1830, (#1630));
#1880 = PRODUCT_DEFINITION_SHAPE ('', '', #1630);
#1890 = SHAPE_DEFINITION_REPRESENTATION (#1880, #1000);
ENDSEC;
END-ISO-10303-21;
