ISO-10303-21;
HEADER;
FILE_DESCRIPTION ((), '1');
FILE_NAME ('T:\\CAD\\Asph\X\E4ren\\S1ADX0370.STP', '2015-08-05T10:45:22', ('Unknown'), ('Unknown'), 'HarmonyWare STEP v1.9.13', 'HarmonyWare Translators', '');
FILE_SCHEMA (('CONFIG_CONTROL_DESIGN'));
ENDSEC;

DATA;
#10 = CARTESIAN_POINT ('', (19.05, 0., 4.91701726404389));
#20 = VERTEX_POINT ('', #10);
#30 = CARTESIAN_POINT ('', (1.16647607618785E-15, 19.05, 4.91701726404389));
#40 = VERTEX_POINT ('', #30);
#50 = CARTESIAN_POINT ('', (19.05, 0., 4.91701726404389));
#60 = CARTESIAN_POINT ('', (19.05, 19.05, 4.91701726404389));
#70 = CARTESIAN_POINT ('', (1.16647607618785E-15, 19.05, 4.91701726404389));
#80 = (
   BOUNDED_CURVE ()
   B_SPLINE_CURVE (2, (#50, #60, #70), .UNSPECIFIED., .F., .U.)
   B_SPLINE_CURVE_WITH_KNOTS ((3, 3), (0., 1.5707963267949), .UNSPECIFIED.)
   CURVE ()
   GEOMETRIC_REPRESENTATION_ITEM ()
   RATIONAL_B_SPLINE_CURVE ((1., 0.707106781186548, 1.))
   REPRESENTATION_ITEM ('')
);
#90 = EDGE_CURVE ('', #20, #40, #80, .T.);
#100 = ORIENTED_EDGE ('', *, *, #90, .T.);
#110 = CARTESIAN_POINT ('', (-19.05, 2.33295215237571E-15, 4.91701726404389));
#120 = VERTEX_POINT ('', #110);
#130 = CARTESIAN_POINT ('', (1.16647607618785E-15, 19.05, 4.91701726404389));
#140 = CARTESIAN_POINT ('', (-19.05, 19.05, 4.91701726404389));
#150 = CARTESIAN_POINT ('', (-19.05, 2.33295215237571E-15, 4.91701726404389));
#160 = (
   BOUNDED_CURVE ()
   B_SPLINE_CURVE (2, (#130, #140, #150), .UNSPECIFIED., .F., .U.)
   B_SPLINE_CURVE_WITH_KNOTS ((3, 3), (1.5707963267949, 3.14159265358979), .UNSPECIFIED.)
   CURVE ()
   GEOMETRIC_REPRESENTATION_ITEM ()
   RATIONAL_B_SPLINE_CURVE ((1., 0.707106781186548, 1.))
   REPRESENTATION_ITEM ('')
);
#170 = EDGE_CURVE ('', #40, #120, #160, .T.);
#180 = ORIENTED_EDGE ('', *, *, #170, .T.);
#190 = CARTESIAN_POINT ('', (-19.05, 2.33295215237571E-15, 10.0056967150236));
#200 = VERTEX_POINT ('', #190);
#210 = CARTESIAN_POINT ('', (-19.05, 2.33295215237571E-15, 4.91701726404389));
#220 = CARTESIAN_POINT ('', (-19.05, 2.33295215237571E-15, 10.0056967150236));
#230 = B_SPLINE_CURVE_WITH_KNOTS ('', 1, (#210, #220), .UNSPECIFIED., .F., .U., (2, 2), (0., 1.), .UNSPECIFIED.);
#240 = EDGE_CURVE ('', #120, #200, #230, .T.);
#250 = ORIENTED_EDGE ('', *, *, #240, .T.);
#260 = CARTESIAN_POINT ('', (19.05, 0., 10.0056967150236));
#270 = VERTEX_POINT ('', #260);
#280 = CARTESIAN_POINT ('', (19.05, 0., 10.0056967150236));
#290 = CARTESIAN_POINT ('', (19.05, 19.05, 10.0056967150236));
#300 = CARTESIAN_POINT ('', (1.16647607618785E-15, 19.05, 10.0056967150236));
#310 = CARTESIAN_POINT ('', (-19.05, 19.05, 10.0056967150236));
#320 = CARTESIAN_POINT ('', (-19.05, 2.33295215237571E-15, 10.0056967150236));
#330 = (
   BOUNDED_CURVE ()
   B_SPLINE_CURVE (2, (#280, #290, #300, #310, #320), .UNSPECIFIED., .F., .U.)
   B_SPLINE_CURVE_WITH_KNOTS ((3, 2, 3), (0., 1.5707963267949, 3.14159265358979), .UNSPECIFIED.)
   CURVE ()
   GEOMETRIC_REPRESENTATION_ITEM ()
   RATIONAL_B_SPLINE_CURVE ((1., 0.707106781186548, 1., 0.707106781186548, 1.))
   REPRESENTATION_ITEM ('')
);
#340 = EDGE_CURVE ('', #270, #200, #330, .T.);
#350 = ORIENTED_EDGE ('', *, *, #340, .F.);
#360 = CARTESIAN_POINT ('', (19.05, 0., 4.91701726404389));
#370 = CARTESIAN_POINT ('', (19.05, 0., 10.0056967150236));
#380 = B_SPLINE_CURVE_WITH_KNOTS ('', 1, (#360, #370), .UNSPECIFIED., .F., .U., (2, 2), (0., 1.), .UNSPECIFIED.);
#390 = EDGE_CURVE ('', #20, #270, #380, .T.);
#400 = ORIENTED_EDGE ('', *, *, #390, .F.);
#410 = EDGE_LOOP ('', (#100, #180, #250, #350, #400));
#420 = FACE_OUTER_BOUND ('', #410, .T.);
#430 = CARTESIAN_POINT ('', (-1.77635683940025E-15, 1.77635683940025E-15, 4.91701726404389));
#440 = DIRECTION ('', (0., 0., 1.));
#450 = DIRECTION ('', (1., -9.32470781837402E-17, 0.));
#460 = AXIS2_PLACEMENT_3D ('', #430, #440, #450);
#470 = CYLINDRICAL_SURFACE ('', #460, 19.05);
#480 = ADVANCED_FACE ('', (#420), #470, .T.);
#490 = CARTESIAN_POINT ('', (-19.05, 2.33295215237571E-15, 4.91701726404389));
#500 = CARTESIAN_POINT ('', (-19.05, -19.05, 4.91701726404389));
#510 = CARTESIAN_POINT ('', (-3.49942822856356E-15, -19.05, 4.91701726404389));
#520 = CARTESIAN_POINT ('', (19.05, -19.05, 4.91701726404389));
#530 = CARTESIAN_POINT ('', (19.05, -4.66590430475142E-15, 4.91701726404389));
#540 = (
   BOUNDED_CURVE ()
   B_SPLINE_CURVE (2, (#490, #500, #510, #520, #530), .UNSPECIFIED., .F., .U.)
   B_SPLINE_CURVE_WITH_KNOTS ((3, 2, 3), (3.14159265358979, 4.71238898038469, 6.28318530717959), .UNSPECIFIED.)
   CURVE ()
   GEOMETRIC_REPRESENTATION_ITEM ()
   RATIONAL_B_SPLINE_CURVE ((1., 0.707106781186548, 1., 0.707106781186548, 1.))
   REPRESENTATION_ITEM ('')
);
#550 = EDGE_CURVE ('', #120, #20, #540, .T.);
#560 = ORIENTED_EDGE ('', *, *, #550, .T.);
#570 = ORIENTED_EDGE ('', *, *, #390, .T.);
#580 = CARTESIAN_POINT ('', (-19.05, 2.33295215237571E-15, 10.0056967150236));
#590 = CARTESIAN_POINT ('', (-19.05, -19.05, 10.0056967150236));
#600 = CARTESIAN_POINT ('', (-3.49942822856356E-15, -19.05, 10.0056967150236));
#610 = CARTESIAN_POINT ('', (19.05, -19.05, 10.0056967150236));
#620 = CARTESIAN_POINT ('', (19.05, -4.66590430475142E-15, 10.0056967150236));
#630 = (
   BOUNDED_CURVE ()
   B_SPLINE_CURVE (2, (#580, #590, #600, #610, #620), .UNSPECIFIED., .F., .U.)
   B_SPLINE_CURVE_WITH_KNOTS ((3, 2, 3), (3.14159265358979, 4.71238898038469, 6.28318530717959), .UNSPECIFIED.)
   CURVE ()
   GEOMETRIC_REPRESENTATION_ITEM ()
   RATIONAL_B_SPLINE_CURVE ((1., 0.707106781186548, 1., 0.707106781186548, 1.))
   REPRESENTATION_ITEM ('')
);
#640 = EDGE_CURVE ('', #200, #270, #630, .T.);
#650 = ORIENTED_EDGE ('', *, *, #640, .F.);
#660 = ORIENTED_EDGE ('', *, *, #240, .F.);
#670 = EDGE_LOOP ('', (#560, #570, #650, #660));
#680 = FACE_OUTER_BOUND ('', #670, .T.);
#690 = CARTESIAN_POINT ('', (0., -1.77635683940025E-15, 4.91701726404389));
#700 = DIRECTION ('', (0., 0., 1.));
#710 = DIRECTION ('', (-1., 2.15711758098476E-16, 0.));
#720 = AXIS2_PLACEMENT_3D ('', #690, #700, #710);
#730 = CYLINDRICAL_SURFACE ('', #720, 19.05);
#740 = ADVANCED_FACE ('', (#680), #730, .T.);
#750 = CARTESIAN_POINT ('', (0., 0., 0.));
#760 = VERTEX_POINT ('', #750);
#770 = CARTESIAN_POINT ('', (0., 0., 0.));
#780 = CARTESIAN_POINT ('', (0., 0.926913277210124, 0.));
#790 = CARTESIAN_POINT ('', (0., 2.38553202260408, 0.054476725248234));
#800 = CARTESIAN_POINT ('', (0., 4.10328297482697, 0.219231365783238));
#810 = CARTESIAN_POINT ('', (0., 5.69424609978322, 0.422710058873166));
#820 = CARTESIAN_POINT ('', (0., 7.5558559606829, 0.74103766959857));
#830 = CARTESIAN_POINT ('', (0., 9.94152768869763, 1.30325965439725));
#840 = CARTESIAN_POINT ('', (0., 12.326890618133, 2.0207905765772));
#850 = CARTESIAN_POINT ('', (0., 14.711874500319, 2.89482825654037));
#860 = CARTESIAN_POINT ('', (0., 16.9589884931371, 3.86713310416776));
#870 = CARTESIAN_POINT ('', (0., 18.3960163994918, 4.57639445254221));
#880 = CARTESIAN_POINT ('', (-1.57772181044202E-30, 19.05, 4.91701726404389));
#890 = B_SPLINE_CURVE_WITH_KNOTS ('', 3, (#770, #780, #790, #800, #810, #820, #830, #840, #850, #860, #870, #880), .UNSPECIFIED., .F., .U., (4, 1, 1, 1, 1, 1, 1, 1, 1, 4), (0., 0.139961732930392, 0.220238368880971, 0.260516385098577, 0.382126520524312, 0.505274740202493, 0.630437452514269, 0.758081304761174, 0.888658455143199, 1.), .UNSPECIFIED.);
#900 = EDGE_CURVE ('', #760, #40, #890, .T.);
#910 = ORIENTED_EDGE ('', *, *, #900, .T.);
#920 = ORIENTED_EDGE ('', *, *, #90, .F.);
#930 = ORIENTED_EDGE ('', *, *, #550, .F.);
#940 = ORIENTED_EDGE ('', *, *, #170, .F.);
#950 = ORIENTED_EDGE ('', *, *, #900, .F.);
#960 = EDGE_LOOP ('', (#910, #920, #930, #940, #950));
#970 = FACE_OUTER_BOUND ('', #960, .T.);
#980 = CARTESIAN_POINT ('', (-1.57772181044202E-30, 19.05, 4.91701726404389));
#990 = CARTESIAN_POINT ('', (-19.05, 19.05, 4.91701726404389));
#1000 = CARTESIAN_POINT ('', (-19.05, 2.22607135440658E-14, 4.91701726404389));
#1010 = CARTESIAN_POINT ('', (-19.05, -19.05, 4.91701726404389));
#1020 = CARTESIAN_POINT ('', (-2.80901263236793E-14, -19.05, 4.91701726404389));
#1030 = CARTESIAN_POINT ('', (19.05, -19.05, 4.91701726404389));
#1040 = CARTESIAN_POINT ('', (19.05, -8.16236493198922E-15, 4.91701726404389));
#1050 = CARTESIAN_POINT ('', (19.05, 19.05, 4.91701726404389));
#1060 = CARTESIAN_POINT ('', (-1.57772181044202E-30, 19.05, 4.91701726404389));
#1070 = CARTESIAN_POINT ('', (0., 18.3960163994918, 4.57639445254221));
#1080 = CARTESIAN_POINT ('', (-18.3960163994918, 18.3960163994918, 4.57639445254221));
#1090 = CARTESIAN_POINT ('', (-18.3960163994918, 2.2220668597913E-14, 4.57639445254221));
#1100 = CARTESIAN_POINT ('', (-18.3960163994918, -18.3960163994918, 4.57639445254221));
#1110 = CARTESIAN_POINT ('', (-2.80100364313736E-14, -18.3960163994918, 4.57639445254221));
#1120 = CARTESIAN_POINT ('', (18.3960163994918, -18.3960163994918, 4.57639445254221));
#1130 = CARTESIAN_POINT ('', (18.3960163994918, -8.04223009353064E-15, 4.57639445254221));
#1140 = CARTESIAN_POINT ('', (18.3960163994918, 18.3960163994918, 4.57639445254221));
#1150 = CARTESIAN_POINT ('', (0., 18.3960163994918, 4.57639445254221));
#1160 = CARTESIAN_POINT ('', (0., 16.9589884931371, 3.86713310416776));
#1170 = CARTESIAN_POINT ('', (-16.9589884931371, 16.9589884931371, 3.86713310416775));
#1180 = CARTESIAN_POINT ('', (-16.9589884931371, 2.21326760166228E-14, 3.86713310416776));
#1190 = CARTESIAN_POINT ('', (-16.9589884931371, -16.9589884931371, 3.86713310416775));
#1200 = CARTESIAN_POINT ('', (-2.78340512687933E-14, -16.9589884931371, 3.86713310416776));
#1210 = CARTESIAN_POINT ('', (16.958988493137, -16.9589884931371, 3.86713310416775));
#1220 = CARTESIAN_POINT ('', (16.9589884931371, -7.77825234966023E-15, 3.86713310416776));
#1230 = CARTESIAN_POINT ('', (16.9589884931371, 16.9589884931371, 3.86713310416775));
#1240 = CARTESIAN_POINT ('', (0., 16.9589884931371, 3.86713310416776));
#1250 = CARTESIAN_POINT ('', (0., 14.711874500319, 2.89482825654037));
#1260 = CARTESIAN_POINT ('', (-14.711874500319, 14.711874500319, 2.89482825654037));
#1270 = CARTESIAN_POINT ('', (-14.711874500319, 2.19950799686916E-14, 2.89482825654037));
#1280 = CARTESIAN_POINT ('', (-14.711874500319, -14.711874500319, 2.89482825654037));
#1290 = CARTESIAN_POINT ('', (-2.7558859172931E-14, -14.711874500319, 2.89482825654037));
#1300 = CARTESIAN_POINT ('', (14.711874500319, -14.711874500319, 2.89482825654037));
#1310 = CARTESIAN_POINT ('', (14.711874500319, -7.36546420586665E-15, 2.89482825654037));
#1320 = CARTESIAN_POINT ('', (14.711874500319, 14.711874500319, 2.89482825654037));
#1330 = CARTESIAN_POINT ('', (0., 14.711874500319, 2.89482825654037));
#1340 = CARTESIAN_POINT ('', (0., 12.326890618133, 2.0207905765772));
#1350 = CARTESIAN_POINT ('', (-12.326890618133, 12.326890618133, 2.0207905765772));
#1360 = CARTESIAN_POINT ('', (-12.326890618133, 2.18490418248248E-14, 2.0207905765772));
#1370 = CARTESIAN_POINT ('', (-12.326890618133, -12.326890618133, 2.0207905765772));
#1380 = CARTESIAN_POINT ('', (-2.72667828851972E-14, -12.326890618133, 2.0207905765772));
#1390 = CARTESIAN_POINT ('', (12.326890618133, -12.326890618133, 2.0207905765772));
#1400 = CARTESIAN_POINT ('', (12.326890618133, -6.92734977426608E-15, 2.0207905765772));
#1410 = CARTESIAN_POINT ('', (12.326890618133, 12.326890618133, 2.0207905765772));
#1420 = CARTESIAN_POINT ('', (0., 12.326890618133, 2.0207905765772));
#1430 = CARTESIAN_POINT ('', (0., 9.94152768869763, 1.30325965439725));
#1440 = CARTESIAN_POINT ('', (-9.94152768869762, 9.94152768869765, 1.30325965439725));
#1450 = CARTESIAN_POINT ('', (-9.94152768869764, 2.17029804710079E-14, 1.30325965439725));
#1460 = CARTESIAN_POINT ('', (-9.94152768869765, -9.9415276886976, 1.30325965439725));
#1470 = CARTESIAN_POINT ('', (-2.69746601775635E-14, -9.94152768869762, 1.30325965439725));
#1480 = CARTESIAN_POINT ('', (9.9415276886976, -9.94152768869763, 1.30325965439725));
#1490 = CARTESIAN_POINT ('', (9.94152768869761, -6.48916571281541E-15, 1.30325965439725));
#1500 = CARTESIAN_POINT ('', (9.94152768869763, 9.94152768869762, 1.30325965439725));
#1510 = CARTESIAN_POINT ('', (0., 9.94152768869763, 1.30325965439725));
#1520 = CARTESIAN_POINT ('', (0., 7.5558559606829, 0.74103766959857));
#1530 = CARTESIAN_POINT ('', (-7.55585596068289, 7.55585596068291, 0.74103766959857));
#1540 = CARTESIAN_POINT ('', (-7.55585596068291, 2.15569002087314E-14, 0.74103766959857));
#1550 = CARTESIAN_POINT ('', (-7.55585596068292, -7.55585596068287, 0.74103766959857));
#1560 = CARTESIAN_POINT ('', (-2.66824996530105E-14, -7.55585596068289, 0.74103766959857));
#1570 = CARTESIAN_POINT ('', (7.55585596068287, -7.5558559606829, 0.74103766959857));
#1580 = CARTESIAN_POINT ('', (7.55585596068288, -6.05092492598597E-15, 0.74103766959857));
#1590 = CARTESIAN_POINT ('', (7.55585596068289, 7.55585596068289, 0.74103766959857));
#1600 = CARTESIAN_POINT ('', (0., 7.5558559606829, 0.74103766959857));
#1610 = CARTESIAN_POINT ('', (0., 5.69424609978322, 0.422710058873166));
#1620 = CARTESIAN_POINT ('', (-5.69424609978321, 5.69424609978323, 0.422710058873166));
#1630 = CARTESIAN_POINT ('', (-5.69424609978322, 2.14429094808608E-14, 0.422710058873165));
#1640 = CARTESIAN_POINT ('', (-5.69424609978324, -5.69424609978319, 0.422710058873165));
#1650 = CARTESIAN_POINT ('', (-2.64545181972693E-14, -5.6942460997832, 0.422710058873165));
#1660 = CARTESIAN_POINT ('', (5.69424609978319, -5.69424609978322, 0.422710058873165));
#1670 = CARTESIAN_POINT ('', (5.6942460997832, -5.70895274237418E-15, 0.422710058873165));
#1680 = CARTESIAN_POINT ('', (5.69424609978321, 5.69424609978321, 0.422710058873166));
#1690 = CARTESIAN_POINT ('', (0., 5.69424609978322, 0.422710058873166));
#1700 = CARTESIAN_POINT ('', (0., 4.10328297482697, 0.219231365783238));
#1710 = CARTESIAN_POINT ('', (-4.10328297482697, 4.10328297482699, 0.219231365783238));
#1720 = CARTESIAN_POINT ('', (-4.10328297482698, 2.13454910859339E-14, 0.219231365783238));
#1730 = CARTESIAN_POINT ('', (-4.10328297482699, -4.10328297482694, 0.219231365783238));
#1740 = CARTESIAN_POINT ('', (-2.62596814074154E-14, -4.10328297482696, 0.219231365783238));
#1750 = CARTESIAN_POINT ('', (4.10328297482694, -4.10328297482697, 0.219231365783238));
#1760 = CARTESIAN_POINT ('', (4.10328297482695, -5.41669755759331E-15, 0.219231365783238));
#1770 = CARTESIAN_POINT ('', (4.10328297482697, 4.10328297482696, 0.219231365783238));
#1780 = CARTESIAN_POINT ('', (0., 4.10328297482697, 0.219231365783238));
#1790 = CARTESIAN_POINT ('', (0., 2.38553202260408, 0.054476725248234));
#1800 = CARTESIAN_POINT ('', (-2.38553202260407, 2.38553202260409, 0.054476725248234));
#1810 = CARTESIAN_POINT ('', (-2.38553202260408, 2.12403091756653E-14, 0.0544767252482341));
#1820 = CARTESIAN_POINT ('', (-2.38553202260409, -2.38553202260405, 0.0544767252482342));
#1830 = CARTESIAN_POINT ('', (-2.60493175868782E-14, -2.38553202260406, 0.0544767252482342));
#1840 = CARTESIAN_POINT ('', (2.38553202260404, -2.38553202260407, 0.0544767252482342));
#1850 = CARTESIAN_POINT ('', (2.38553202260405, -5.10115182678749E-15, 0.0544767252482341));
#1860 = CARTESIAN_POINT ('', (2.38553202260407, 2.38553202260406, 0.054476725248234));
#1870 = CARTESIAN_POINT ('', (0., 2.38553202260408, 0.054476725248234));
#1880 = CARTESIAN_POINT ('', (0., 0.926913277210124, 0.));
#1890 = CARTESIAN_POINT ('', (-0.926913277210116, 0.926913277210137, 0.));
#1900 = CARTESIAN_POINT ('', (-0.926913277210129, 2.11509945367791E-14, 0.));
#1910 = CARTESIAN_POINT ('', (-0.926913277210141, -0.926913277210094, 0.));
#1920 = CARTESIAN_POINT ('', (-2.58706883091059E-14, -0.926913277210107, 0.));
#1930 = CARTESIAN_POINT ('', (0.92691327721009, -0.92691327721012, 0.));
#1940 = CARTESIAN_POINT ('', (0.926913277210103, -4.83320791012904E-15, 0.));
#1950 = CARTESIAN_POINT ('', (0.926913277210116, 0.926913277210111, 0.));
#1960 = CARTESIAN_POINT ('', (0., 0.926913277210124, 0.));
#1970 = CARTESIAN_POINT ('', (0., 0., 0.));
#1980 = CARTESIAN_POINT ('', (0., 0., 0.));
#1990 = CARTESIAN_POINT ('', (0., 0., 0.));
#2000 = CARTESIAN_POINT ('', (0., 0., 0.));
#2010 = CARTESIAN_POINT ('', (0., 0., 0.));
#2020 = CARTESIAN_POINT ('', (0., 0., 0.));
#2030 = CARTESIAN_POINT ('', (0., 0., 0.));
#2040 = CARTESIAN_POINT ('', (0., 0., 0.));
#2050 = CARTESIAN_POINT ('', (0., 0., 0.));
#2060 = (
   BOUNDED_SURFACE ()
   B_SPLINE_SURFACE (3, 2, ((#980, #990, #1000, #1010, #1020, #1030, #1040, #1050, #1060), (#1070, #1080, #1090, #1100, #1110, #1120, #1130, #1140, #1150), (#1160, #1170, #1180, #1190, #1200, #1210, #1220, #1230, #1240), (#1250, #1260, #1270, #1280, #1290, #1300, #1310, #1320, #1330), (#1340, #1350, #1360, #1370, #1380, #1390, #1400, #1410, #1420), (#1430, #1440, #1450, #1460, #1470, #1480, #1490, #1500, #1510), (#1520, #1530, #1540, #1550, #1560, #1570, #1580, #1590, #1600), (#1610, #1620, #1630, #1640, #1650, #1660, #1670, #1680, #1690), (#1700, #1710, #1720, #1730, #1740, #1750, #1760, #1770, #1780), (#1790, #1800, #1810, #1820, #1830, #1840, #1850, #1860, #1870), (#1880, #1890, #1900, #1910, #1920, #1930, #1940, #1950, #1960), (#1970, #1980, #1990, #2000, #2010, #2020, #2030, #2040, #2050)), .UNSPECIFIED., .F., .T., .U.)
   B_SPLINE_SURFACE_WITH_KNOTS ((4, 1, 1, 1, 1, 1, 1, 1, 1, 4), (3, 2, 2, 2, 3), (0., 0.111341544856801, 0.241918695238826, 0.369562547485731, 0.494725259797507, 0.617873479475688, 0.739483614901423, 0.779761631119029, 0.860038267069608, 1.), (0., 90., 180., 270., 360.), .UNSPECIFIED.)
   SURFACE ()
   GEOMETRIC_REPRESENTATION_ITEM ()
   RATIONAL_B_SPLINE_SURFACE (((1., 0.707106781186548, 1., 0.707106781186548, 1., 0.707106781186548, 1., 0.707106781186548, 1.), (1., 0.707106781186548, 1., 0.707106781186548, 1., 0.707106781186548, 1., 0.707106781186548, 1.), (1., 0.707106781186548, 1., 0.707106781186548, 1., 0.707106781186548, 1., 0.707106781186548, 1.), (1., 0.707106781186548, 1., 0.707106781186548, 1., 0.707106781186548, 1., 0.707106781186548, 1.), (1., 0.707106781186548, 1., 0.707106781186548, 1., 0.707106781186548, 1., 0.707106781186548, 1.), (1., 0.707106781186548, 1., 0.707106781186548, 1., 0.707106781186548, 1., 0.707106781186548, 1.), (1., 0.707106781186548, 1., 0.707106781186548, 1., 0.707106781186548, 1., 0.707106781186548, 1.), (1., 0.707106781186548, 1., 0.707106781186548, 1., 0.707106781186548, 1., 0.707106781186548, 1.), (1., 0.707106781186548, 1., 0.707106781186548, 1., 0.707106781186548, 1., 0.707106781186548, 1.), (1., 0.707106781186548, 1., 0.707106781186548, 1., 0.707106781186548, 1., 0.707106781186548, 1.), (1., 0.707106781186548, 1., 0.707106781186548, 1., 0.707106781186548, 1., 0.707106781186548, 1.), (1., 0.707106781186548, 1., 0.707106781186548, 1., 0.707106781186548, 1., 0.707106781186548, 1.)))
   REPRESENTATION_ITEM ('')
);
#2070 = ADVANCED_FACE ('', (#970), #2060, .T.);
#2080 = ORIENTED_EDGE ('', *, *, #340, .T.);
#2090 = ORIENTED_EDGE ('', *, *, #640, .T.);
#2100 = EDGE_LOOP ('', (#2080, #2090));
#2110 = FACE_OUTER_BOUND ('', #2100, .T.);
#2120 = CARTESIAN_POINT ('', (-7.105427357601E-14, 5.6843418860808E-14, -171.988));
#2130 = DIRECTION ('', (-1., -3.1760089172877E-16, 5.95461240587355E-16));
#2140 = DIRECTION ('', (3.1760089172877E-16, -1., 6.3520178345754E-16));
#2150 = AXIS2_PLACEMENT_3D ('', #2120, #2130, #2140);
#2160 = SPHERICAL_SURFACE ('', #2150, 182.988);
#2170 = ADVANCED_FACE ('', (#2110), #2160, .T.);
#2180 = CLOSED_SHELL ('', (#480, #740, #2070, #2170));
#2190 = MANIFOLD_SOLID_BREP ('', #2180);
#2200 = (
   LENGTH_UNIT ()
   NAMED_UNIT (*)
   SI_UNIT (.MILLI., .METRE.)
);
#2210 = (
   NAMED_UNIT (*)
   SI_UNIT ($, .STERADIAN.)
   SOLID_ANGLE_UNIT ()
);
#2220 = (
   NAMED_UNIT (*)
   SI_UNIT ($, .RADIAN.)
   PLANE_ANGLE_UNIT ()
);
#2230 = UNCERTAINTY_MEASURE_WITH_UNIT (LENGTH_MEASURE(0.0001), #2200, 'DISTANCE_ACCURACY_VALUE', '');
#2240 = (
   GEOMETRIC_REPRESENTATION_CONTEXT (3)
   GLOBAL_UNCERTAINTY_ASSIGNED_CONTEXT ((#2230))
   GLOBAL_UNIT_ASSIGNED_CONTEXT ((#2200, #2210, #2220))
   REPRESENTATION_CONTEXT ('', '3D')
);
#2250 = ADVANCED_BREP_SHAPE_REPRESENTATION ('', (#2190), #2240);
#2260 = APPLICATION_CONTEXT ('configuration controlled 3D designs of mechanical parts and assemblies');
#2270 = APPLICATION_PROTOCOL_DEFINITION ('International Standard', 'config_control_design', 1997, #2260);
#2280 = MECHANICAL_CONTEXT ('', #2260, 'mechanical');
#2290 = PRODUCT ('NONE', '', '', (#2280));
#2300 = PERSON_AND_ORGANIZATION_ROLE ('design_owner');
#2310 = PERSON ('', '', $, $, $, $);
#2320 = ORGANIZATION ($, '', '');
#2330 = PERSON_AND_ORGANIZATION (#2310, #2320);
#2340 = CC_DESIGN_PERSON_AND_ORGANIZATION_ASSIGNMENT (#2330, #2300, (#2290));
#2350 = PRODUCT_RELATED_PRODUCT_CATEGORY ('detail', $, (#2290));
#2360 = PRODUCT_DEFINITION_FORMATION_WITH_SPECIFIED_SOURCE ('', '', #2290, .NOT_KNOWN.);
#2370 = APPROVAL_STATUS ('approved');
#2380 = APPROVAL (#2370, '');
#2390 = CALENDAR_DATE (2015, 5, 8);
#2400 = COORDINATED_UNIVERSAL_TIME_OFFSET (0, $, .AHEAD.);
#2410 = LOCAL_TIME (10, 45, 22., #2400);
#2420 = DATE_AND_TIME (#2390, #2410);
#2430 = APPROVAL_DATE_TIME (#2420, #2380);
#2440 = APPROVAL_ROLE ('');
#2450 = PERSON ('', '', $, $, $, $);
#2460 = ORGANIZATION ($, '', '');
#2470 = PERSON_AND_ORGANIZATION (#2450, #2460);
#2480 = APPROVAL_PERSON_ORGANIZATION (#2470, #2380, #2440);
#2490 = CC_DESIGN_APPROVAL (#2380, (#2360));
#2500 = PERSON_AND_ORGANIZATION_ROLE ('creator');
#2510 = PERSON ('', '', $, $, $, $);
#2520 = ORGANIZATION ($, '', '');
#2530 = PERSON_AND_ORGANIZATION (#2510, #2520);
#2540 = CC_DESIGN_PERSON_AND_ORGANIZATION_ASSIGNMENT (#2530, #2500, (#2360));
#2550 = PERSON_AND_ORGANIZATION_ROLE ('part_supplier');
#2560 = PERSON ('', '', $, $, $, $);
#2570 = ORGANIZATION ($, '', '');
#2580 = PERSON_AND_ORGANIZATION (#2560, #2570);
#2590 = CC_DESIGN_PERSON_AND_ORGANIZATION_ASSIGNMENT (#2580, #2550, (#2360));
#2600 = SECURITY_CLASSIFICATION_LEVEL ('unclassified');
#2610 = SECURITY_CLASSIFICATION ('', '', #2600);
#2620 = APPROVAL_STATUS ('approved');
#2630 = APPROVAL (#2620, '');
#2640 = CALENDAR_DATE (2015, 5, 8);
#2650 = COORDINATED_UNIVERSAL_TIME_OFFSET (0, $, .AHEAD.);
#2660 = LOCAL_TIME (10, 45, 22., #2650);
#2670 = DATE_AND_TIME (#2640, #2660);
#2680 = APPROVAL_DATE_TIME (#2670, #2630);
#2690 = APPROVAL_ROLE ('');
#2700 = PERSON ('', '', $, $, $, $);
#2710 = ORGANIZATION ($, '', '');
#2720 = PERSON_AND_ORGANIZATION (#2700, #2710);
#2730 = APPROVAL_PERSON_ORGANIZATION (#2720, #2630, #2690);
#2740 = CC_DESIGN_APPROVAL (#2630, (#2610));
#2750 = DATE_TIME_ROLE ('classification_date');
#2760 = CALENDAR_DATE (2015, 5, 8);
#2770 = COORDINATED_UNIVERSAL_TIME_OFFSET (0, $, .AHEAD.);
#2780 = LOCAL_TIME (10, 45, 22., #2770);
#2790 = DATE_AND_TIME (#2760, #2780);
#2800 = CC_DESIGN_DATE_AND_TIME_ASSIGNMENT (#2790, #2750, (#2610));
#2810 = PERSON_AND_ORGANIZATION_ROLE ('classification_officer');
#2820 = PERSON ('', '', $, $, $, $);
#2830 = ORGANIZATION ($, '', '');
#2840 = PERSON_AND_ORGANIZATION (#2820, #2830);
#2850 = CC_DESIGN_PERSON_AND_ORGANIZATION_ASSIGNMENT (#2840, #2810, (#2610));
#2860 = CC_DESIGN_SECURITY_CLASSIFICATION (#2610, (#2360));
#2870 = DESIGN_CONTEXT ('', #2260, 'design');
#2880 = PRODUCT_DEFINITION ('', '', #2360, #2870);
#2890 = APPROVAL_STATUS ('approved');
#2900 = APPROVAL (#2890, '');
#2910 = CALENDAR_DATE (2015, 5, 8);
#2920 = COORDINATED_UNIVERSAL_TIME_OFFSET (0, $, .AHEAD.);
#2930 = LOCAL_TIME (10, 45, 22., #2920);
#2940 = DATE_AND_TIME (#2910, #2930);
#2950 = APPROVAL_DATE_TIME (#2940, #2900);
#2960 = APPROVAL_ROLE ('');
#2970 = PERSON ('', '', $, $, $, $);
#2980 = ORGANIZATION ($, '', '');
#2990 = PERSON_AND_ORGANIZATION (#2970, #2980);
#3000 = APPROVAL_PERSON_ORGANIZATION (#2990, #2900, #2960);
#3010 = CC_DESIGN_APPROVAL (#2900, (#2880));
#3020 = DATE_TIME_ROLE ('creation_date');
#3030 = CALENDAR_DATE (2015, 5, 8);
#3040 = COORDINATED_UNIVERSAL_TIME_OFFSET (0, $, .AHEAD.);
#3050 = LOCAL_TIME (10, 45, 22., #3040);
#3060 = DATE_AND_TIME (#3030, #3050);
#3070 = CC_DESIGN_DATE_AND_TIME_ASSIGNMENT (#3060, #3020, (#2880));
#3080 = PERSON_AND_ORGANIZATION_ROLE ('creator');
#3090 = PERSON ('', '', $, $, $, $);
#3100 = ORGANIZATION ($, '', '');
#3110 = PERSON_AND_ORGANIZATION (#3090, #3100);
#3120 = CC_DESIGN_PERSON_AND_ORGANIZATION_ASSIGNMENT (#3110, #3080, (#2880));
#3130 = PRODUCT_DEFINITION_SHAPE ('', '', #2880);
#3140 = SHAPE_DEFINITION_REPRESENTATION (#3130, #2250);
ENDSEC;
END-ISO-10303-21;
