ISO-10303-21;
HEADER;
FILE_DESCRIPTION ((), '1');
FILE_NAME ('T:\\CAD\\Asph\X\E4ren\\S1ADX0380.STP', '2014-01-13T10:00:44', ('Unknown'), ('Unknown'), 'HarmonyWare STEP v1.9.12', 'HarmonyWare Translators', '');
FILE_SCHEMA (('CONFIG_CONTROL_DESIGN'));
ENDSEC;

DATA;
#10 = CARTESIAN_POINT ('', (19.05, 0., 4.21926319870337));
#20 = VERTEX_POINT ('', #10);
#30 = CARTESIAN_POINT ('', (1.16647607618785E-15, 19.05, 4.21926319870337));
#40 = VERTEX_POINT ('', #30);
#50 = CARTESIAN_POINT ('', (19.05, 0., 4.21926319870337));
#60 = CARTESIAN_POINT ('', (19.05, 19.05, 4.21926319870337));
#70 = CARTESIAN_POINT ('', (1.16647607618785E-15, 19.05, 4.21926319870337));
#80 = (
   BOUNDED_CURVE ()
   B_SPLINE_CURVE (2, (#50, #60, #70), .UNSPECIFIED., .F., .U.)
   B_SPLINE_CURVE_WITH_KNOTS ((3, 3), (0., 1.5707963267949), .UNSPECIFIED.)
   CURVE ()
   GEOMETRIC_REPRESENTATION_ITEM ()
   RATIONAL_B_SPLINE_CURVE ((1., 0.707106781186548, 1.))
   REPRESENTATION_ITEM ('')
);
#90 = EDGE_CURVE ('', #20, #40, #80, .T.);
#100 = ORIENTED_EDGE ('', *, *, #90, .T.);
#110 = CARTESIAN_POINT ('', (-19.05, 2.33295215237571E-15, 4.21926319870337));
#120 = VERTEX_POINT ('', #110);
#130 = CARTESIAN_POINT ('', (1.16647607618785E-15, 19.05, 4.21926319870337));
#140 = CARTESIAN_POINT ('', (-19.05, 19.05, 4.21926319870337));
#150 = CARTESIAN_POINT ('', (-19.05, 2.33295215237571E-15, 4.21926319870337));
#160 = (
   BOUNDED_CURVE ()
   B_SPLINE_CURVE (2, (#130, #140, #150), .UNSPECIFIED., .F., .U.)
   B_SPLINE_CURVE_WITH_KNOTS ((3, 3), (1.5707963267949, 3.14159265358979), .UNSPECIFIED.)
   CURVE ()
   GEOMETRIC_REPRESENTATION_ITEM ()
   RATIONAL_B_SPLINE_CURVE ((1., 0.707106781186548, 1.))
   REPRESENTATION_ITEM ('')
);
#170 = EDGE_CURVE ('', #40, #120, #160, .T.);
#180 = ORIENTED_EDGE ('', *, *, #170, .T.);
#190 = CARTESIAN_POINT ('', (-19.05, 2.33295215237571E-15, 11.0619084666315));
#200 = VERTEX_POINT ('', #190);
#210 = CARTESIAN_POINT ('', (-19.05, 2.33295215237571E-15, 4.21926319870337));
#220 = CARTESIAN_POINT ('', (-19.05, 2.33295215237571E-15, 11.0619084666315));
#230 = B_SPLINE_CURVE_WITH_KNOTS ('', 1, (#210, #220), .UNSPECIFIED., .F., .U., (2, 2), (0., 1.), .UNSPECIFIED.);
#240 = EDGE_CURVE ('', #120, #200, #230, .T.);
#250 = ORIENTED_EDGE ('', *, *, #240, .T.);
#260 = CARTESIAN_POINT ('', (19.05, 0., 11.0619084666315));
#270 = VERTEX_POINT ('', #260);
#280 = CARTESIAN_POINT ('', (19.05, 0., 11.0619084666315));
#290 = CARTESIAN_POINT ('', (19.05, 19.05, 11.0619084666315));
#300 = CARTESIAN_POINT ('', (1.16647607618785E-15, 19.05, 11.0619084666315));
#310 = CARTESIAN_POINT ('', (-19.05, 19.05, 11.0619084666315));
#320 = CARTESIAN_POINT ('', (-19.05, 2.33295215237571E-15, 11.0619084666315));
#330 = (
   BOUNDED_CURVE ()
   B_SPLINE_CURVE (2, (#280, #290, #300, #310, #320), .UNSPECIFIED., .F., .U.)
   B_SPLINE_CURVE_WITH_KNOTS ((3, 2, 3), (0., 1.5707963267949, 3.14159265358979), .UNSPECIFIED.)
   CURVE ()
   GEOMETRIC_REPRESENTATION_ITEM ()
   RATIONAL_B_SPLINE_CURVE ((1., 0.707106781186548, 1., 0.707106781186548, 1.))
   REPRESENTATION_ITEM ('')
);
#340 = EDGE_CURVE ('', #270, #200, #330, .T.);
#350 = ORIENTED_EDGE ('', *, *, #340, .F.);
#360 = CARTESIAN_POINT ('', (19.05, 0., 4.21926319870337));
#370 = CARTESIAN_POINT ('', (19.05, 0., 11.0619084666315));
#380 = B_SPLINE_CURVE_WITH_KNOTS ('', 1, (#360, #370), .UNSPECIFIED., .F., .U., (2, 2), (0., 1.), .UNSPECIFIED.);
#390 = EDGE_CURVE ('', #20, #270, #380, .T.);
#400 = ORIENTED_EDGE ('', *, *, #390, .F.);
#410 = EDGE_LOOP ('', (#100, #180, #250, #350, #400));
#420 = FACE_OUTER_BOUND ('', #410, .T.);
#430 = CARTESIAN_POINT ('', (-1.77635683940025E-15, 1.77635683940025E-15, 4.21926319870337));
#440 = DIRECTION ('', (0., 0., 1.));
#450 = DIRECTION ('', (1., -9.32470781837402E-17, 0.));
#460 = AXIS2_PLACEMENT_3D ('', #430, #440, #450);
#470 = CYLINDRICAL_SURFACE ('', #460, 19.05);
#480 = ADVANCED_FACE ('', (#420), #470, .T.);
#490 = CARTESIAN_POINT ('', (-19.05, 2.33295215237571E-15, 4.21926319870337));
#500 = CARTESIAN_POINT ('', (-19.05, -19.05, 4.21926319870337));
#510 = CARTESIAN_POINT ('', (-3.49942822856356E-15, -19.05, 4.21926319870337));
#520 = CARTESIAN_POINT ('', (19.05, -19.05, 4.21926319870337));
#530 = CARTESIAN_POINT ('', (19.05, -4.66590430475142E-15, 4.21926319870337));
#540 = (
   BOUNDED_CURVE ()
   B_SPLINE_CURVE (2, (#490, #500, #510, #520, #530), .UNSPECIFIED., .F., .U.)
   B_SPLINE_CURVE_WITH_KNOTS ((3, 2, 3), (3.14159265358979, 4.71238898038469, 6.28318530717959), .UNSPECIFIED.)
   CURVE ()
   GEOMETRIC_REPRESENTATION_ITEM ()
   RATIONAL_B_SPLINE_CURVE ((1., 0.707106781186548, 1., 0.707106781186548, 1.))
   REPRESENTATION_ITEM ('')
);
#550 = EDGE_CURVE ('', #120, #20, #540, .T.);
#560 = ORIENTED_EDGE ('', *, *, #550, .T.);
#570 = ORIENTED_EDGE ('', *, *, #390, .T.);
#580 = CARTESIAN_POINT ('', (-19.05, 2.33295215237571E-15, 11.0619084666315));
#590 = CARTESIAN_POINT ('', (-19.05, -19.05, 11.0619084666315));
#600 = CARTESIAN_POINT ('', (-3.49942822856356E-15, -19.05, 11.0619084666315));
#610 = CARTESIAN_POINT ('', (19.05, -19.05, 11.0619084666315));
#620 = CARTESIAN_POINT ('', (19.05, -4.66590430475142E-15, 11.0619084666315));
#630 = (
   BOUNDED_CURVE ()
   B_SPLINE_CURVE (2, (#580, #590, #600, #610, #620), .UNSPECIFIED., .F., .U.)
   B_SPLINE_CURVE_WITH_KNOTS ((3, 2, 3), (3.14159265358979, 4.71238898038469, 6.28318530717959), .UNSPECIFIED.)
   CURVE ()
   GEOMETRIC_REPRESENTATION_ITEM ()
   RATIONAL_B_SPLINE_CURVE ((1., 0.707106781186548, 1., 0.707106781186548, 1.))
   REPRESENTATION_ITEM ('')
);
#640 = EDGE_CURVE ('', #200, #270, #630, .T.);
#650 = ORIENTED_EDGE ('', *, *, #640, .F.);
#660 = ORIENTED_EDGE ('', *, *, #240, .F.);
#670 = EDGE_LOOP ('', (#560, #570, #650, #660));
#680 = FACE_OUTER_BOUND ('', #670, .T.);
#690 = CARTESIAN_POINT ('', (0., -1.77635683940025E-15, 4.21926319870337));
#700 = DIRECTION ('', (0., 0., 1.));
#710 = DIRECTION ('', (-1., 2.15711758098476E-16, 0.));
#720 = AXIS2_PLACEMENT_3D ('', #690, #700, #710);
#730 = CYLINDRICAL_SURFACE ('', #720, 19.05);
#740 = ADVANCED_FACE ('', (#680), #730, .T.);
#750 = CARTESIAN_POINT ('', (0., 0., 0.));
#760 = VERTEX_POINT ('', #750);
#770 = CARTESIAN_POINT ('', (0., 0., 0.));
#780 = CARTESIAN_POINT ('', (0., 0.926688166028164, 0.));
#790 = CARTESIAN_POINT ('', (0., 2.65062358645809, 0.0554143628388331));
#800 = CARTESIAN_POINT ('', (0., 5.16722992291028, 0.286466122343128));
#810 = CARTESIAN_POINT ('', (0., 7.55196736485341, 0.637113660421439));
#820 = CARTESIAN_POINT ('', (0., 9.93656873714531, 1.1198925897169));
#830 = CARTESIAN_POINT ('', (0., 12.3210023049971, 1.73541743610543));
#840 = CARTESIAN_POINT ('', (0., 14.7052434839497, 2.48448032682036));
#850 = CARTESIAN_POINT ('', (-1.57772181044202E-30, 16.9530370087092, 3.31757092355867));
#860 = CARTESIAN_POINT ('', (-1.57772181044202E-30, 18.3943422530808, 3.92674126477281));
#870 = CARTESIAN_POINT ('', (-1.57772181044202E-30, 19.05, 4.21926319870337));
#880 = B_SPLINE_CURVE_WITH_KNOTS ('', 3, (#770, #780, #790, #800, #810, #820, #830, #840, #850, #860, #870), .UNSPECIFIED., .F., .U., (4, 1, 1, 1, 1, 1, 1, 1, 4), (0., 0.141426695715066, 0.263089879230853, 0.385543843486949, 0.509149854761137, 0.634265272417334, 0.76124271281332, 0.890429499387122, 1.), .UNSPECIFIED.);
#890 = EDGE_CURVE ('', #760, #40, #880, .T.);
#900 = ORIENTED_EDGE ('', *, *, #890, .T.);
#910 = ORIENTED_EDGE ('', *, *, #90, .F.);
#920 = ORIENTED_EDGE ('', *, *, #550, .F.);
#930 = ORIENTED_EDGE ('', *, *, #170, .F.);
#940 = ORIENTED_EDGE ('', *, *, #890, .F.);
#950 = EDGE_LOOP ('', (#900, #910, #920, #930, #940));
#960 = FACE_OUTER_BOUND ('', #950, .T.);
#970 = CARTESIAN_POINT ('', (-1.57772181044202E-30, 19.05, 4.21926319870337));
#980 = CARTESIAN_POINT ('', (-19.05, 19.05, 4.21926319870336));
#990 = CARTESIAN_POINT ('', (-19.05, 2.22607135440658E-14, 4.21926319870336));
#1000 = CARTESIAN_POINT ('', (-19.05, -19.05, 4.21926319870336));
#1010 = CARTESIAN_POINT ('', (-2.80901263236793E-14, -19.05, 4.21926319870337));
#1020 = CARTESIAN_POINT ('', (19.05, -19.05, 4.21926319870337));
#1030 = CARTESIAN_POINT ('', (19.05, -8.16236493198922E-15, 4.21926319870337));
#1040 = CARTESIAN_POINT ('', (19.05, 19.05, 4.21926319870337));
#1050 = CARTESIAN_POINT ('', (-1.57772181044202E-30, 19.05, 4.21926319870337));
#1060 = CARTESIAN_POINT ('', (-1.57772181044202E-30, 18.3943422530808, 3.92674126477281));
#1070 = CARTESIAN_POINT ('', (-18.3943422530807, 18.3943422530808, 3.92674126477281));
#1080 = CARTESIAN_POINT ('', (-18.3943422530808, 2.21741472511327E-14, 3.92674126477281));
#1090 = CARTESIAN_POINT ('', (-18.3943422530808, -18.3943422530807, 3.92674126477281));
#1100 = CARTESIAN_POINT ('', (-2.79169937378131E-14, -18.3943422530807, 3.92674126477281));
#1110 = CARTESIAN_POINT ('', (18.3943422530807, -18.3943422530808, 3.92674126477282));
#1120 = CARTESIAN_POINT ('', (18.3943422530807, -7.99550372294602E-15, 3.92674126477282));
#1130 = CARTESIAN_POINT ('', (18.3943422530807, 18.3943422530807, 3.92674126477282));
#1140 = CARTESIAN_POINT ('', (-1.57772181044202E-30, 18.3943422530808, 3.92674126477281));
#1150 = CARTESIAN_POINT ('', (-1.57772181044202E-30, 16.9530370087092, 3.31757092355867));
#1160 = CARTESIAN_POINT ('', (-16.9530370087092, 16.9530370087093, 3.31757092355866));
#1170 = CARTESIAN_POINT ('', (-16.9530370087092, 2.19892265799238E-14, 3.31757092355866));
#1180 = CARTESIAN_POINT ('', (-16.9530370087093, -16.9530370087092, 3.31757092355866));
#1190 = CARTESIAN_POINT ('', (-2.75471523953953E-14, -16.9530370087092, 3.31757092355867));
#1200 = CARTESIAN_POINT ('', (16.9530370087092, -16.9530370087092, 3.31757092355867));
#1210 = CARTESIAN_POINT ('', (16.9530370087092, -7.63407406632572E-15, 3.31757092355867));
#1220 = CARTESIAN_POINT ('', (16.9530370087092, 16.9530370087092, 3.31757092355867));
#1230 = CARTESIAN_POINT ('', (-1.57772181044202E-30, 16.9530370087092, 3.31757092355867));
#1240 = CARTESIAN_POINT ('', (0., 14.7052434839497, 2.48448032682036));
#1250 = CARTESIAN_POINT ('', (-14.7052434839497, 14.7052434839497, 2.48448032682036));
#1260 = CARTESIAN_POINT ('', (-14.7052434839497, 2.17193899646935E-14, 2.48448032682036));
#1270 = CARTESIAN_POINT ('', (-14.7052434839497, -14.7052434839497, 2.48448032682036));
#1280 = CARTESIAN_POINT ('', (-2.70074791649347E-14, -14.7052434839497, 2.48448032682036));
#1290 = CARTESIAN_POINT ('', (14.7052434839497, -14.7052434839497, 2.48448032682036));
#1300 = CARTESIAN_POINT ('', (14.7052434839497, -7.08896213657136E-15, 2.48448032682036));
#1310 = CARTESIAN_POINT ('', (14.7052434839497, 14.7052434839497, 2.48448032682036));
#1320 = CARTESIAN_POINT ('', (0., 14.7052434839497, 2.48448032682036));
#1330 = CARTESIAN_POINT ('', (0., 12.3210023049971, 1.73541743610543));
#1340 = CARTESIAN_POINT ('', (-12.3210023049971, 12.3210023049972, 1.73541743610543));
#1350 = CARTESIAN_POINT ('', (-12.3210023049971, 2.1454532274488E-14, 1.73541743610543));
#1360 = CARTESIAN_POINT ('', (-12.3210023049972, -12.3210023049971, 1.73541743610543));
#1370 = CARTESIAN_POINT ('', (-2.64777637845236E-14, -12.3210023049971, 1.73541743610543));
#1380 = CARTESIAN_POINT ('', (12.3210023049971, -12.3210023049971, 1.73541743610544));
#1390 = CARTESIAN_POINT ('', (12.3210023049971, -6.53211911354583E-15, 1.73541743610544));
#1400 = CARTESIAN_POINT ('', (12.3210023049971, 12.3210023049971, 1.73541743610544));
#1410 = CARTESIAN_POINT ('', (0., 12.3210023049971, 1.73541743610543));
#1420 = CARTESIAN_POINT ('', (0., 9.93656873714531, 1.1198925897169));
#1430 = CARTESIAN_POINT ('', (-9.93656873714531, 9.93656873714533, 1.1198925897169));
#1440 = CARTESIAN_POINT ('', (-9.93656873714532, 2.1210853284677E-14, 1.1198925897169));
#1450 = CARTESIAN_POINT ('', (-9.93656873714533, -9.93656873714528, 1.1198925897169));
#1460 = CARTESIAN_POINT ('', (-2.59904058049016E-14, -9.9365687371453, 1.11989258971691));
#1470 = CARTESIAN_POINT ('', (9.93656873714528, -9.93656873714531, 1.11989258971691));
#1480 = CARTESIAN_POINT ('', (9.93656873714529, -5.99643123006992E-15, 1.11989258971691));
#1490 = CARTESIAN_POINT ('', (9.93656873714531, 9.9365687371453, 1.11989258971691));
#1500 = CARTESIAN_POINT ('', (0., 9.93656873714531, 1.1198925897169));
#1510 = CARTESIAN_POINT ('', (0., 7.55196736485341, 0.637113660421439));
#1520 = CARTESIAN_POINT ('', (-7.5519673648534, 7.55196736485342, 0.637113660421438));
#1530 = CARTESIAN_POINT ('', (-7.55196736485341, 2.09882288019367E-14, 0.637113660421438));
#1540 = CARTESIAN_POINT ('', (-7.55196736485343, -7.55196736485338, 0.637113660421438));
#1550 = CARTESIAN_POINT ('', (-2.55451568394212E-14, -7.55196736485339, 0.63711366042144));
#1560 = CARTESIAN_POINT ('', (7.55196736485338, -7.55196736485341, 0.637113660421441));
#1570 = CARTESIAN_POINT ('', (7.55196736485339, -5.48177730354772E-15, 0.637113660421441));
#1580 = CARTESIAN_POINT ('', (7.5519673648534, 7.5519673648534, 0.637113660421441));
#1590 = CARTESIAN_POINT ('', (0., 7.55196736485341, 0.637113660421439));
#1600 = CARTESIAN_POINT ('', (0., 5.16722992291028, 0.286466122343128));
#1610 = CARTESIAN_POINT ('', (-5.16722992291027, 5.16722992291029, 0.286466122343127));
#1620 = CARTESIAN_POINT ('', (-5.16722992291028, 2.07865632534413E-14, 0.286466122343127));
#1630 = CARTESIAN_POINT ('', (-5.1672299229103, -5.16722992291025, 0.286466122343126));
#1640 = CARTESIAN_POINT ('', (-2.51418257424302E-14, -5.16722992291026, 0.286466122343127));
#1650 = CARTESIAN_POINT ('', (5.16722992291025, -5.16722992291028, 0.286466122343128));
#1660 = CARTESIAN_POINT ('', (5.16722992291026, -4.988065647544E-15, 0.286466122343128));
#1670 = CARTESIAN_POINT ('', (5.16722992291027, 5.16722992291027, 0.286466122343129));
#1680 = CARTESIAN_POINT ('', (0., 5.16722992291028, 0.286466122343128));
#1690 = CARTESIAN_POINT ('', (0., 2.65062358645809, 0.0554143628388331));
#1700 = CARTESIAN_POINT ('', (-2.65062358645808, 2.6506235864581, 0.0554143628388327));
#1710 = CARTESIAN_POINT ('', (-2.65062358645809, 2.05958011167348E-14, 0.0554143628388331));
#1720 = CARTESIAN_POINT ('', (-2.6506235864581, -2.65062358645806, 0.0554143628388334));
#1730 = CARTESIAN_POINT ('', (-2.47603014690172E-14, -2.65062358645807, 0.0554143628388339));
#1740 = CARTESIAN_POINT ('', (2.65062358645805, -2.65062358645808, 0.0554143628388343));
#1750 = CARTESIAN_POINT ('', (2.65062358645806, -4.48910812137249E-15, 0.0554143628388339));
#1760 = CARTESIAN_POINT ('', (2.65062358645808, 2.65062358645807, 0.0554143628388336));
#1770 = CARTESIAN_POINT ('', (0., 2.65062358645809, 0.0554143628388331));
#1780 = CARTESIAN_POINT ('', (0., 0.926688166028164, 0.));
#1790 = CARTESIAN_POINT ('', (-0.926688166028156, 0.926688166028177, -1.4705148562479E-16));
#1800 = CARTESIAN_POINT ('', (-0.926688166028168, 2.04814470903942E-14, -1.4705148562479E-16));
#1810 = CARTESIAN_POINT ('', (-0.92668816602818, -0.926688166028136, -1.4705148562479E-16));
#1820 = CARTESIAN_POINT ('', (-2.45315934163361E-14, -0.926688166028148, -1.80086131180262E-32));
#1830 = CARTESIAN_POINT ('', (0.926688166028132, -0.92668816602816, 1.4705148562479E-16));
#1840 = CARTESIAN_POINT ('', (0.926688166028144, -4.16363289557531E-15, 1.4705148562479E-16));
#1850 = CARTESIAN_POINT ('', (0.926688166028156, 0.926688166028152, 1.4705148562479E-16));
#1860 = CARTESIAN_POINT ('', (0., 0.926688166028164, 0.));
#1870 = CARTESIAN_POINT ('', (0., 0., 0.));
#1880 = CARTESIAN_POINT ('', (0., 0., 0.));
#1890 = CARTESIAN_POINT ('', (0., 0., 0.));
#1900 = CARTESIAN_POINT ('', (0., 0., 0.));
#1910 = CARTESIAN_POINT ('', (0., 0., 0.));
#1920 = CARTESIAN_POINT ('', (0., 0., 0.));
#1930 = CARTESIAN_POINT ('', (0., 0., 0.));
#1940 = CARTESIAN_POINT ('', (0., 0., 0.));
#1950 = CARTESIAN_POINT ('', (0., 0., 0.));
#1960 = (
   BOUNDED_SURFACE ()
   B_SPLINE_SURFACE (3, 2, ((#970, #980, #990, #1000, #1010, #1020, #1030, #1040, #1050), (#1060, #1070, #1080, #1090, #1100, #1110, #1120, #1130, #1140), (#1150, #1160, #1170, #1180, #1190, #1200, #1210, #1220, #1230), (#1240, #1250, #1260, #1270, #1280, #1290, #1300, #1310, #1320), (#1330, #1340, #1350, #1360, #1370, #1380, #1390, #1400, #1410), (#1420, #1430, #1440, #1450, #1460, #1470, #1480, #1490, #1500), (#1510, #1520, #1530, #1540, #1550, #1560, #1570, #1580, #1590), (#1600, #1610, #1620, #1630, #1640, #1650, #1660, #1670, #1680), (#1690, #1700, #1710, #1720, #1730, #1740, #1750, #1760, #1770), (#1780, #1790, #1800, #1810, #1820, #1830, #1840, #1850, #1860), (#1870, #1880, #1890, #1900, #1910, #1920, #1930, #1940, #1950)), .UNSPECIFIED., .F., .T., .U.)
   B_SPLINE_SURFACE_WITH_KNOTS ((4, 1, 1, 1, 1, 1, 1, 1, 4), (3, 2, 2, 2, 3), (0., 0.109570500612878, 0.23875728718668, 0.365734727582666, 0.490850145238863, 0.614456156513051, 0.736910120769147, 0.858573304284934, 1.), (0., 90., 180., 270., 360.), .UNSPECIFIED.)
   SURFACE ()
   GEOMETRIC_REPRESENTATION_ITEM ()
   RATIONAL_B_SPLINE_SURFACE (((1., 0.707106781186548, 1., 0.707106781186548, 1., 0.707106781186548, 1., 0.707106781186548, 1.), (1., 0.707106781186548, 1., 0.707106781186548, 1., 0.707106781186548, 1., 0.707106781186548, 1.), (1., 0.707106781186548, 1., 0.707106781186548, 1., 0.707106781186548, 1., 0.707106781186548, 1.), (1., 0.707106781186548, 1., 0.707106781186548, 1., 0.707106781186548, 1., 0.707106781186548, 1.), (1., 0.707106781186548, 1., 0.707106781186548, 1., 0.707106781186548, 1., 0.707106781186548, 1.), (1., 0.707106781186548, 1., 0.707106781186548, 1., 0.707106781186548, 1., 0.707106781186548, 1.), (1., 0.707106781186548, 1., 0.707106781186548, 1., 0.707106781186548, 1., 0.707106781186548, 1.), (1., 0.707106781186548, 1., 0.707106781186548, 1., 0.707106781186548, 1., 0.707106781186548, 1.), (1., 0.707106781186548, 1., 0.707106781186548, 1., 0.707106781186548, 1., 0.707106781186548, 1.), (1., 0.707106781186548, 1., 0.707106781186548, 1., 0.707106781186548, 1., 0.707106781186548, 1.), (1., 0.707106781186548, 1., 0.707106781186548, 1., 0.707106781186548, 1., 0.707106781186548, 1.)))
   REPRESENTATION_ITEM ('')
);
#1970 = ADVANCED_FACE ('', (#960), #1960, .T.);
#1980 = ORIENTED_EDGE ('', *, *, #340, .T.);
#1990 = ORIENTED_EDGE ('', *, *, #640, .T.);
#2000 = EDGE_LOOP ('', (#1980, #1990));
#2010 = FACE_OUTER_BOUND ('', #2000, .T.);
#2020 = CARTESIAN_POINT ('', (-5.6843418860808E-14, 5.6843418860808E-14, -181.895));
#2030 = DIRECTION ('', (-1., -2.99735176129679E-16, 2.59032193742761E-16));
#2040 = DIRECTION ('', (2.99735176129679E-16, -1., 2.99735176129679E-16));
#2050 = AXIS2_PLACEMENT_3D ('', #2020, #2030, #2040);
#2060 = SPHERICAL_SURFACE ('', #2050, 193.895);
#2070 = ADVANCED_FACE ('', (#2010), #2060, .T.);
#2080 = CLOSED_SHELL ('', (#480, #740, #1970, #2070));
#2090 = MANIFOLD_SOLID_BREP ('', #2080);
#2100 = (
   LENGTH_UNIT ()
   NAMED_UNIT (*)
   SI_UNIT (.MILLI., .METRE.)
);
#2110 = (
   NAMED_UNIT (*)
   SI_UNIT ($, .STERADIAN.)
   SOLID_ANGLE_UNIT ()
);
#2120 = (
   NAMED_UNIT (*)
   SI_UNIT ($, .RADIAN.)
   PLANE_ANGLE_UNIT ()
);
#2130 = UNCERTAINTY_MEASURE_WITH_UNIT (LENGTH_MEASURE(0.0001), #2100, 'DISTANCE_ACCURACY_VALUE', '');
#2140 = (
   GEOMETRIC_REPRESENTATION_CONTEXT (3)
   GLOBAL_UNCERTAINTY_ASSIGNED_CONTEXT ((#2130))
   GLOBAL_UNIT_ASSIGNED_CONTEXT ((#2100, #2110, #2120))
   REPRESENTATION_CONTEXT ('', '3D')
);
#2150 = ADVANCED_BREP_SHAPE_REPRESENTATION ('', (#2090), #2140);
#2160 = APPLICATION_CONTEXT ('configuration controlled 3D designs of mechanical parts and assemblies');
#2170 = APPLICATION_PROTOCOL_DEFINITION ('International Standard', 'config_control_design', 1997, #2160);
#2180 = MECHANICAL_CONTEXT ('', #2160, 'mechanical');
#2190 = PRODUCT ('NONE', '', '', (#2180));
#2200 = PERSON_AND_ORGANIZATION_ROLE ('design_owner');
#2210 = PERSON ('', '', $, $, $, $);
#2220 = ORGANIZATION ($, '', '');
#2230 = PERSON_AND_ORGANIZATION (#2210, #2220);
#2240 = CC_DESIGN_PERSON_AND_ORGANIZATION_ASSIGNMENT (#2230, #2200, (#2190));
#2250 = PRODUCT_RELATED_PRODUCT_CATEGORY ('detail', $, (#2190));
#2260 = PRODUCT_DEFINITION_FORMATION_WITH_SPECIFIED_SOURCE ('', '', #2190, .NOT_KNOWN.);
#2270 = APPROVAL_STATUS ('approved');
#2280 = APPROVAL (#2270, '');
#2290 = CALENDAR_DATE (2014, 13, 1);
#2300 = COORDINATED_UNIVERSAL_TIME_OFFSET (0, $, .AHEAD.);
#2310 = LOCAL_TIME (10, 0, 44., #2300);
#2320 = DATE_AND_TIME (#2290, #2310);
#2330 = APPROVAL_DATE_TIME (#2320, #2280);
#2340 = APPROVAL_ROLE ('');
#2350 = PERSON ('', '', $, $, $, $);
#2360 = ORGANIZATION ($, '', '');
#2370 = PERSON_AND_ORGANIZATION (#2350, #2360);
#2380 = APPROVAL_PERSON_ORGANIZATION (#2370, #2280, #2340);
#2390 = CC_DESIGN_APPROVAL (#2280, (#2260));
#2400 = PERSON_AND_ORGANIZATION_ROLE ('creator');
#2410 = PERSON ('', '', $, $, $, $);
#2420 = ORGANIZATION ($, '', '');
#2430 = PERSON_AND_ORGANIZATION (#2410, #2420);
#2440 = CC_DESIGN_PERSON_AND_ORGANIZATION_ASSIGNMENT (#2430, #2400, (#2260));
#2450 = PERSON_AND_ORGANIZATION_ROLE ('part_supplier');
#2460 = PERSON ('', '', $, $, $, $);
#2470 = ORGANIZATION ($, '', '');
#2480 = PERSON_AND_ORGANIZATION (#2460, #2470);
#2490 = CC_DESIGN_PERSON_AND_ORGANIZATION_ASSIGNMENT (#2480, #2450, (#2260));
#2500 = SECURITY_CLASSIFICATION_LEVEL ('unclassified');
#2510 = SECURITY_CLASSIFICATION ('', '', #2500);
#2520 = APPROVAL_STATUS ('approved');
#2530 = APPROVAL (#2520, '');
#2540 = CALENDAR_DATE (2014, 13, 1);
#2550 = COORDINATED_UNIVERSAL_TIME_OFFSET (0, $, .AHEAD.);
#2560 = LOCAL_TIME (10, 0, 44., #2550);
#2570 = DATE_AND_TIME (#2540, #2560);
#2580 = APPROVAL_DATE_TIME (#2570, #2530);
#2590 = APPROVAL_ROLE ('');
#2600 = PERSON ('', '', $, $, $, $);
#2610 = ORGANIZATION ($, '', '');
#2620 = PERSON_AND_ORGANIZATION (#2600, #2610);
#2630 = APPROVAL_PERSON_ORGANIZATION (#2620, #2530, #2590);
#2640 = CC_DESIGN_APPROVAL (#2530, (#2510));
#2650 = DATE_TIME_ROLE ('classification_date');
#2660 = CALENDAR_DATE (2014, 13, 1);
#2670 = COORDINATED_UNIVERSAL_TIME_OFFSET (0, $, .AHEAD.);
#2680 = LOCAL_TIME (10, 0, 44., #2670);
#2690 = DATE_AND_TIME (#2660, #2680);
#2700 = CC_DESIGN_DATE_AND_TIME_ASSIGNMENT (#2690, #2650, (#2510));
#2710 = PERSON_AND_ORGANIZATION_ROLE ('classification_officer');
#2720 = PERSON ('', '', $, $, $, $);
#2730 = ORGANIZATION ($, '', '');
#2740 = PERSON_AND_ORGANIZATION (#2720, #2730);
#2750 = CC_DESIGN_PERSON_AND_ORGANIZATION_ASSIGNMENT (#2740, #2710, (#2510));
#2760 = CC_DESIGN_SECURITY_CLASSIFICATION (#2510, (#2260));
#2770 = DESIGN_CONTEXT ('', #2160, 'design');
#2780 = PRODUCT_DEFINITION ('', '', #2260, #2770);
#2790 = APPROVAL_STATUS ('approved');
#2800 = APPROVAL (#2790, '');
#2810 = CALENDAR_DATE (2014, 13, 1);
#2820 = COORDINATED_UNIVERSAL_TIME_OFFSET (0, $, .AHEAD.);
#2830 = LOCAL_TIME (10, 0, 44., #2820);
#2840 = DATE_AND_TIME (#2810, #2830);
#2850 = APPROVAL_DATE_TIME (#2840, #2800);
#2860 = APPROVAL_ROLE ('');
#2870 = PERSON ('', '', $, $, $, $);
#2880 = ORGANIZATION ($, '', '');
#2890 = PERSON_AND_ORGANIZATION (#2870, #2880);
#2900 = APPROVAL_PERSON_ORGANIZATION (#2890, #2800, #2860);
#2910 = CC_DESIGN_APPROVAL (#2800, (#2780));
#2920 = DATE_TIME_ROLE ('creation_date');
#2930 = CALENDAR_DATE (2014, 13, 1);
#2940 = COORDINATED_UNIVERSAL_TIME_OFFSET (0, $, .AHEAD.);
#2950 = LOCAL_TIME (10, 0, 44., #2940);
#2960 = DATE_AND_TIME (#2930, #2950);
#2970 = CC_DESIGN_DATE_AND_TIME_ASSIGNMENT (#2960, #2920, (#2780));
#2980 = PERSON_AND_ORGANIZATION_ROLE ('creator');
#2990 = PERSON ('', '', $, $, $, $);
#3000 = ORGANIZATION ($, '', '');
#3010 = PERSON_AND_ORGANIZATION (#2990, #3000);
#3020 = CC_DESIGN_PERSON_AND_ORGANIZATION_ASSIGNMENT (#3010, #2980, (#2780));
#3030 = PRODUCT_DEFINITION_SHAPE ('', '', #2780);
#3040 = SHAPE_DEFINITION_REPRESENTATION (#3030, #2150);
ENDSEC;
END-ISO-10303-21;
