ISO-10303-21;
HEADER;
FILE_DESCRIPTION ((), '1');
FILE_NAME ('T:\\CAD\\AsphXren\\S1ADX0540.STP', '2012-08-06T09:56:32', ('Unknown'), ('Unknown'), 'HarmonyWare STEP v1.4.9', 'HarmonyWare Translators', '');
FILE_SCHEMA (('CONFIG_CONTROL_DESIGN'));
ENDSEC;

DATA;
#10 = CARTESIAN_POINT ('', (26., 0., 1.54480789446742));
#20 = VERTEX_POINT ('', #10);
#30 = CARTESIAN_POINT ('', (1.59204083889156E-15, 26., 1.54480789446742));
#40 = VERTEX_POINT ('', #30);
#50 = CARTESIAN_POINT ('', (26., 0., 1.54480789446742));
#60 = CARTESIAN_POINT ('', (26., 26., 1.54480789446742));
#70 = CARTESIAN_POINT ('', (1.59204083889156E-15, 26., 1.54480789446742));
#80 = (
   BOUNDED_CURVE ()
   B_SPLINE_CURVE (2, (#50, #60, #70), .UNSPECIFIED., .F., .U.)
   B_SPLINE_CURVE_WITH_KNOTS ((3, 3), (0., 1.5707963267949), .UNSPECIFIED.)
   CURVE ()
   GEOMETRIC_REPRESENTATION_ITEM ()
   RATIONAL_B_SPLINE_CURVE ((1., 0.707106781186548, 1.))
   REPRESENTATION_ITEM ('')
);
#90 = EDGE_CURVE ('', #20, #40, #80, .T.);
#100 = ORIENTED_EDGE ('', *, *, #90, .T.);
#110 = CARTESIAN_POINT ('', (-26., 3.18408167778312E-15, 1.54480789446742));
#120 = VERTEX_POINT ('', #110);
#130 = CARTESIAN_POINT ('', (1.59204083889156E-15, 26., 1.54480789446742));
#140 = CARTESIAN_POINT ('', (-26., 26., 1.54480789446742));
#150 = CARTESIAN_POINT ('', (-26., 3.18408167778312E-15, 1.54480789446742));
#160 = (
   BOUNDED_CURVE ()
   B_SPLINE_CURVE (2, (#130, #140, #150), .UNSPECIFIED., .F., .U.)
   B_SPLINE_CURVE_WITH_KNOTS ((3, 3), (1.5707963267949, 3.14159265358979), .UNSPECIFIED.)
   CURVE ()
   GEOMETRIC_REPRESENTATION_ITEM ()
   RATIONAL_B_SPLINE_CURVE ((1., 0.707106781186548, 1.))
   REPRESENTATION_ITEM ('')
);
#170 = EDGE_CURVE ('', #40, #120, #160, .T.);
#180 = ORIENTED_EDGE ('', *, *, #170, .T.);
#190 = CARTESIAN_POINT ('', (-26., 3.18408167778312E-15, 8.16083408904542));
#200 = VERTEX_POINT ('', #190);
#210 = CARTESIAN_POINT ('', (-26., 3.18408167778312E-15, 1.54480789446742));
#220 = CARTESIAN_POINT ('', (-26., 3.18408167778312E-15, 8.16083408904542));
#230 = B_SPLINE_CURVE_WITH_KNOTS ('', 1, (#210, #220), .UNSPECIFIED., .F., .U., (2, 2), (0., 1.), .UNSPECIFIED.);
#240 = EDGE_CURVE ('', #120, #200, #230, .T.);
#250 = ORIENTED_EDGE ('', *, *, #240, .T.);
#260 = CARTESIAN_POINT ('', (26., 0., 8.16083408904542));
#270 = VERTEX_POINT ('', #260);
#280 = CARTESIAN_POINT ('', (26., 0., 8.16083408904542));
#290 = CARTESIAN_POINT ('', (26., 26., 8.16083408904542));
#300 = CARTESIAN_POINT ('', (1.59204083889156E-15, 26., 8.16083408904542));
#310 = CARTESIAN_POINT ('', (-26., 26., 8.16083408904542));
#320 = CARTESIAN_POINT ('', (-26., 3.18408167778312E-15, 8.16083408904542));
#330 = (
   BOUNDED_CURVE ()
   B_SPLINE_CURVE (2, (#280, #290, #300, #310, #320), .UNSPECIFIED., .F., .U.)
   B_SPLINE_CURVE_WITH_KNOTS ((3, 2, 3), (0., 1.5707963267949, 3.14159265358979), .UNSPECIFIED.)
   CURVE ()
   GEOMETRIC_REPRESENTATION_ITEM ()
   RATIONAL_B_SPLINE_CURVE ((1., 0.707106781186548, 1., 0.707106781186548, 1.))
   REPRESENTATION_ITEM ('')
);
#340 = EDGE_CURVE ('', #270, #200, #330, .T.);
#350 = ORIENTED_EDGE ('', *, *, #340, .F.);
#360 = CARTESIAN_POINT ('', (26., 0., 1.54480789446742));
#370 = CARTESIAN_POINT ('', (26., 0., 8.16083408904542));
#380 = B_SPLINE_CURVE_WITH_KNOTS ('', 1, (#360, #370), .UNSPECIFIED., .F., .U., (2, 2), (0., 1.), .UNSPECIFIED.);
#390 = EDGE_CURVE ('', #20, #270, #380, .T.);
#400 = ORIENTED_EDGE ('', *, *, #390, .F.);
#410 = EDGE_LOOP ('', (#100, #180, #250, #350, #400));
#420 = FACE_OUTER_BOUND ('', #410, .T.);
#430 = CARTESIAN_POINT ('', (-1.77635683940025E-15, 0., 1.54480789446742));
#440 = DIRECTION ('', (0., 0., 1.));
#450 = DIRECTION ('', (1., 0., 0.));
#460 = AXIS2_PLACEMENT_3D ('', #430, #440, #450);
#470 = CYLINDRICAL_SURFACE ('', #460, 26.);
#480 = ADVANCED_FACE ('', (#420), #470, .T.);
#490 = CARTESIAN_POINT ('', (-26., 3.18408167778312E-15, 1.54480789446742));
#500 = CARTESIAN_POINT ('', (-26., -26., 1.54480789446742));
#510 = CARTESIAN_POINT ('', (-4.77612251667468E-15, -26., 1.54480789446742));
#520 = CARTESIAN_POINT ('', (26., -26., 1.54480789446742));
#530 = CARTESIAN_POINT ('', (26., -6.36816335556624E-15, 1.54480789446742));
#540 = (
   BOUNDED_CURVE ()
   B_SPLINE_CURVE (2, (#490, #500, #510, #520, #530), .UNSPECIFIED., .F., .U.)
   B_SPLINE_CURVE_WITH_KNOTS ((3, 2, 3), (3.14159265358979, 4.71238898038469, 6.28318530717959), .UNSPECIFIED.)
   CURVE ()
   GEOMETRIC_REPRESENTATION_ITEM ()
   RATIONAL_B_SPLINE_CURVE ((1., 0.707106781186548, 1., 0.707106781186548, 1.))
   REPRESENTATION_ITEM ('')
);
#550 = EDGE_CURVE ('', #120, #20, #540, .T.);
#560 = ORIENTED_EDGE ('', *, *, #550, .T.);
#570 = ORIENTED_EDGE ('', *, *, #390, .T.);
#580 = CARTESIAN_POINT ('', (-26., 3.18408167778312E-15, 8.16083408904542));
#590 = CARTESIAN_POINT ('', (-26., -26., 8.16083408904542));
#600 = CARTESIAN_POINT ('', (-4.77612251667468E-15, -26., 8.16083408904542));
#610 = CARTESIAN_POINT ('', (26., -26., 8.16083408904542));
#620 = CARTESIAN_POINT ('', (26., -6.36816335556624E-15, 8.16083408904542));
#630 = (
   BOUNDED_CURVE ()
   B_SPLINE_CURVE (2, (#580, #590, #600, #610, #620), .UNSPECIFIED., .F., .U.)
   B_SPLINE_CURVE_WITH_KNOTS ((3, 2, 3), (3.14159265358979, 4.71238898038469, 6.28318530717959), .UNSPECIFIED.)
   CURVE ()
   GEOMETRIC_REPRESENTATION_ITEM ()
   RATIONAL_B_SPLINE_CURVE ((1., 0.707106781186548, 1., 0.707106781186548, 1.))
   REPRESENTATION_ITEM ('')
);
#640 = EDGE_CURVE ('', #200, #270, #630, .T.);
#650 = ORIENTED_EDGE ('', *, *, #640, .F.);
#660 = ORIENTED_EDGE ('', *, *, #240, .F.);
#670 = EDGE_LOOP ('', (#560, #570, #650, #660));
#680 = FACE_OUTER_BOUND ('', #670, .T.);
#690 = CARTESIAN_POINT ('', (3.5527136788005E-15, 0., 1.54480789446742));
#700 = DIRECTION ('', (0., 0., 1.));
#710 = DIRECTION ('', (-1., 1.22464679914735E-16, 0.));
#720 = AXIS2_PLACEMENT_3D ('', #690, #700, #710);
#730 = CYLINDRICAL_SURFACE ('', #720, 26.);
#740 = ADVANCED_FACE ('', (#680), #730, .T.);
#750 = CARTESIAN_POINT ('', (0., 0., 0.));
#760 = VERTEX_POINT ('', #750);
#770 = CARTESIAN_POINT ('', (0., 0., 0.));
#780 = CARTESIAN_POINT ('', (0., 4.78815532968953, 0.));
#790 = CARTESIAN_POINT ('', (0., 13.4751564191783, 0.285551353577396));
#800 = CARTESIAN_POINT ('', (0., 22.128394536436, 1.08458693931197));
#810 = CARTESIAN_POINT ('', (0., 26., 1.54480789446744));
#820 = (
   BOUNDED_CURVE ()
   B_SPLINE_CURVE (3, (#770, #780, #790, #800, #810), .UNSPECIFIED., .F., .U.)
   B_SPLINE_CURVE_WITH_KNOTS ((4, 1, 4), (0., 0.551185134333958, 1.), .UNSPECIFIED.)
   CURVE ()
   GEOMETRIC_REPRESENTATION_ITEM ()
   RATIONAL_B_SPLINE_CURVE ((1., 1., 1., 1., 1.))
   REPRESENTATION_ITEM ('')
);
#830 = EDGE_CURVE ('', #760, #40, #820, .T.);
#840 = ORIENTED_EDGE ('', *, *, #830, .T.);
#850 = ORIENTED_EDGE ('', *, *, #90, .F.);
#860 = ORIENTED_EDGE ('', *, *, #550, .F.);
#870 = ORIENTED_EDGE ('', *, *, #170, .F.);
#880 = ORIENTED_EDGE ('', *, *, #830, .F.);
#890 = EDGE_LOOP ('', (#840, #850, #860, #870, #880));
#900 = FACE_OUTER_BOUND ('', #890, .T.);
#910 = CARTESIAN_POINT ('', (0., 26., 1.54480789446744));
#920 = CARTESIAN_POINT ('', (-26., 26., 1.54480789446744));
#930 = CARTESIAN_POINT ('', (-26., 1.59204083889156E-15, 1.54480789446744));
#940 = CARTESIAN_POINT ('', (-26., -26., 1.54480789446744));
#950 = CARTESIAN_POINT ('', (-3.18408167778312E-15, -26., 1.54480789446744));
#960 = CARTESIAN_POINT ('', (26., -26., 1.54480789446744));
#970 = CARTESIAN_POINT ('', (26., -4.77612251667468E-15, 1.54480789446744));
#980 = CARTESIAN_POINT ('', (26., 26., 1.54480789446744));
#990 = CARTESIAN_POINT ('', (0., 26., 1.54480789446744));
#1000 = CARTESIAN_POINT ('', (0., 22.128394536436, 1.08458693931197));
#1010 = CARTESIAN_POINT ('', (-22.128394536436, 22.128394536436, 1.08458693931197));
#1020 = CARTESIAN_POINT ('', (-22.128394536436, 1.35497337696581E-15, 1.08458693931197));
#1030 = CARTESIAN_POINT ('', (-22.128394536436, -22.128394536436, 1.08458693931197));
#1040 = CARTESIAN_POINT ('', (-2.70994675393162E-15, -22.128394536436, 1.08458693931197));
#1050 = CARTESIAN_POINT ('', (22.128394536436, -22.128394536436, 1.08458693931197));
#1060 = CARTESIAN_POINT ('', (22.128394536436, -4.06492013089742E-15, 1.08458693931197));
#1070 = CARTESIAN_POINT ('', (22.128394536436, 22.128394536436, 1.08458693931197));
#1080 = CARTESIAN_POINT ('', (0., 22.128394536436, 1.08458693931197));
#1090 = CARTESIAN_POINT ('', (0., 13.4751564191783, 0.285551353577396));
#1100 = CARTESIAN_POINT ('', (-13.4751564191783, 13.4751564191783, 0.285551353577396));
#1110 = CARTESIAN_POINT ('', (-13.4751564191783, 8.25115358837832E-16, 0.285551353577396));
#1120 = CARTESIAN_POINT ('', (-13.4751564191783, -13.4751564191783, 0.285551353577396));
#1130 = CARTESIAN_POINT ('', (-1.65023071767566E-15, -13.4751564191783, 0.285551353577396));
#1140 = CARTESIAN_POINT ('', (13.4751564191783, -13.4751564191783, 0.285551353577396));
#1150 = CARTESIAN_POINT ('', (13.4751564191783, -2.4753460765135E-15, 0.285551353577396));
#1160 = CARTESIAN_POINT ('', (13.4751564191783, 13.4751564191783, 0.285551353577396));
#1170 = CARTESIAN_POINT ('', (0., 13.4751564191783, 0.285551353577396));
#1180 = CARTESIAN_POINT ('', (0., 4.78815532968953, 0.));
#1190 = CARTESIAN_POINT ('', (-4.78815532968953, 4.78815532968953, 0.));
#1200 = CARTESIAN_POINT ('', (-4.78815532968953, 2.93189954916231E-16, 0.));
#1210 = CARTESIAN_POINT ('', (-4.78815532968953, -4.78815532968953, 0.));
#1220 = CARTESIAN_POINT ('', (-5.86379909832463E-16, -4.78815532968953, 0.));
#1230 = CARTESIAN_POINT ('', (4.78815532968953, -4.78815532968953, 0.));
#1240 = CARTESIAN_POINT ('', (4.78815532968953, -8.79569864748694E-16, 0.));
#1250 = CARTESIAN_POINT ('', (4.78815532968953, 4.78815532968953, 0.));
#1260 = CARTESIAN_POINT ('', (0., 4.78815532968953, 0.));
#1270 = CARTESIAN_POINT ('', (0., 0., 0.));
#1280 = CARTESIAN_POINT ('', (0., 0., 0.));
#1290 = CARTESIAN_POINT ('', (0., 0., 0.));
#1300 = CARTESIAN_POINT ('', (0., 0., 0.));
#1310 = CARTESIAN_POINT ('', (0., 0., 0.));
#1320 = CARTESIAN_POINT ('', (0., 0., 0.));
#1330 = CARTESIAN_POINT ('', (0., 0., 0.));
#1340 = CARTESIAN_POINT ('', (0., 0., 0.));
#1350 = CARTESIAN_POINT ('', (0., 0., 0.));
#1360 = (
   BOUNDED_SURFACE ()
   B_SPLINE_SURFACE (3, 2, ((#910, #920, #930, #940, #950, #960, #970, #980, #990), (#1000, #1010, #1020, #1030, #1040, #1050, #1060, #1070, #1080), (#1090, #1100, #1110, #1120, #1130, #1140, #1150, #1160, #1170), (#1180, #1190, #1200, #1210, #1220, #1230, #1240, #1250, #1260), (#1270, #1280, #1290, #1300, #1310, #1320, #1330, #1340, #1350)), .UNSPECIFIED., .F., .T., .U.)
   B_SPLINE_SURFACE_WITH_KNOTS ((4, 1, 4), (3, 2, 2, 2, 3), (0., 0.448814865666042, 1.), (0., 90., 180., 270., 360.), .UNSPECIFIED.)
   SURFACE ()
   GEOMETRIC_REPRESENTATION_ITEM ()
   RATIONAL_B_SPLINE_SURFACE (((1., 0.707106781186548, 1., 0.707106781186548, 1., 0.707106781186548, 1., 0.707106781186548, 1.), (1., 0.707106781186548, 1., 0.707106781186548, 1., 0.707106781186548, 1., 0.707106781186548, 1.), (1., 0.707106781186548, 1., 0.707106781186548, 1., 0.707106781186548, 1., 0.707106781186548, 1.), (1., 0.707106781186548, 1., 0.707106781186548, 1., 0.707106781186548, 1., 0.707106781186548, 1.), (1., 0.707106781186548, 1., 0.707106781186548, 1., 0.707106781186548, 1., 0.707106781186548, 1.)))
   REPRESENTATION_ITEM ('')
);
#1370 = ADVANCED_FACE ('', (#900), #1360, .T.);
#1380 = ORIENTED_EDGE ('', *, *, #340, .T.);
#1390 = ORIENTED_EDGE ('', *, *, #640, .T.);
#1400 = EDGE_LOOP ('', (#1380, #1390));
#1410 = FACE_OUTER_BOUND ('', #1400, .T.);
#1420 = CARTESIAN_POINT ('', (1.13686837721616E-13, -1.13686837721616E-13, -988.232));
#1430 = DIRECTION ('', (-1., -2.33230806177244E-16, 4.37278070705461E-16));
#1440 = DIRECTION ('', (2.33230806177244E-16, -1., 4.66461612354488E-16));
#1450 = AXIS2_PLACEMENT_3D ('', #1420, #1430, #1440);
#1460 = SPHERICAL_SURFACE ('', #1450, 996.732);
#1470 = ADVANCED_FACE ('', (#1410), #1460, .T.);
#1480 = CLOSED_SHELL ('', (#480, #740, #1370, #1470));
#1490 = MANIFOLD_SOLID_BREP ('', #1480);
#1500 = (
   LENGTH_UNIT ()
   NAMED_UNIT (*)
   SI_UNIT (.MILLI., .METRE.)
);
#1510 = (
   NAMED_UNIT (*)
   SI_UNIT ($, .STERADIAN.)
   SOLID_ANGLE_UNIT ()
);
#1520 = (
   NAMED_UNIT (*)
   SI_UNIT ($, .RADIAN.)
   PLANE_ANGLE_UNIT ()
);
#1530 = UNCERTAINTY_MEASURE_WITH_UNIT (LENGTH_MEASURE(0.0001), #1500, 'DISTANCE_ACCURACY_VALUE', '');
#1540 = (
   GEOMETRIC_REPRESENTATION_CONTEXT (3)
   GLOBAL_UNCERTAINTY_ASSIGNED_CONTEXT ((#1530))
   GLOBAL_UNIT_ASSIGNED_CONTEXT ((#1500, #1510, #1520))
   REPRESENTATION_CONTEXT ('', '3D')
);
#1550 = ADVANCED_BREP_SHAPE_REPRESENTATION ('', (#1490), #1540);
#1560 = APPLICATION_CONTEXT ('configuration controlled 3D designs of mechanical parts and assemblies');
#1570 = APPLICATION_PROTOCOL_DEFINITION ('International Standard', 'config_control_design', 1997, #1560);
#1580 = MECHANICAL_CONTEXT ('', #1560, 'mechanical');
#1590 = PRODUCT ('product-name', '', '', (#1580));
#1600 = PERSON_AND_ORGANIZATION_ROLE ('design_owner');
#1610 = PERSON ('', '', $, $, $, $);
#1620 = ORGANIZATION ($, '', '');
#1630 = PERSON_AND_ORGANIZATION (#1610, #1620);
#1640 = CC_DESIGN_PERSON_AND_ORGANIZATION_ASSIGNMENT (#1630, #1600, (#1590));
#1650 = PRODUCT_RELATED_PRODUCT_CATEGORY ('detail', $, (#1590));
#1660 = PRODUCT_DEFINITION_FORMATION_WITH_SPECIFIED_SOURCE ('', '', #1590, .NOT_KNOWN.);
#1670 = APPROVAL_STATUS ('approved');
#1680 = APPROVAL (#1670, '');
#1690 = CALENDAR_DATE (2012, 6, 8);
#1700 = COORDINATED_UNIVERSAL_TIME_OFFSET (0, $, .AHEAD.);
#1710 = LOCAL_TIME (9, 56, 32., #1700);
#1720 = DATE_AND_TIME (#1690, #1710);
#1730 = APPROVAL_DATE_TIME (#1720, #1680);
#1740 = APPROVAL_ROLE ('');
#1750 = PERSON ('', '', $, $, $, $);
#1760 = ORGANIZATION ($, '', '');
#1770 = PERSON_AND_ORGANIZATION (#1750, #1760);
#1780 = APPROVAL_PERSON_ORGANIZATION (#1770, #1680, #1740);
#1790 = CC_DESIGN_APPROVAL (#1680, (#1660));
#1800 = PERSON_AND_ORGANIZATION_ROLE ('creator');
#1810 = PERSON ('', '', $, $, $, $);
#1820 = ORGANIZATION ($, '', '');
#1830 = PERSON_AND_ORGANIZATION (#1810, #1820);
#1840 = CC_DESIGN_PERSON_AND_ORGANIZATION_ASSIGNMENT (#1830, #1800, (#1660));
#1850 = PERSON_AND_ORGANIZATION_ROLE ('part_supplier');
#1860 = PERSON ('', '', $, $, $, $);
#1870 = ORGANIZATION ($, '', '');
#1880 = PERSON_AND_ORGANIZATION (#1860, #1870);
#1890 = CC_DESIGN_PERSON_AND_ORGANIZATION_ASSIGNMENT (#1880, #1850, (#1660));
#1900 = SECURITY_CLASSIFICATION_LEVEL ('unclassified');
#1910 = SECURITY_CLASSIFICATION ('', '', #1900);
#1920 = APPROVAL_STATUS ('approved');
#1930 = APPROVAL (#1920, '');
#1940 = CALENDAR_DATE (2012, 6, 8);
#1950 = COORDINATED_UNIVERSAL_TIME_OFFSET (0, $, .AHEAD.);
#1960 = LOCAL_TIME (9, 56, 32., #1950);
#1970 = DATE_AND_TIME (#1940, #1960);
#1980 = APPROVAL_DATE_TIME (#1970, #1930);
#1990 = APPROVAL_ROLE ('');
#2000 = PERSON ('', '', $, $, $, $);
#2010 = ORGANIZATION ($, '', '');
#2020 = PERSON_AND_ORGANIZATION (#2000, #2010);
#2030 = APPROVAL_PERSON_ORGANIZATION (#2020, #1930, #1990);
#2040 = CC_DESIGN_APPROVAL (#1930, (#1910));
#2050 = DATE_TIME_ROLE ('classification_date');
#2060 = CALENDAR_DATE (2012, 6, 8);
#2070 = COORDINATED_UNIVERSAL_TIME_OFFSET (0, $, .AHEAD.);
#2080 = LOCAL_TIME (9, 56, 32., #2070);
#2090 = DATE_AND_TIME (#2060, #2080);
#2100 = CC_DESIGN_DATE_AND_TIME_ASSIGNMENT (#2090, #2050, (#1910));
#2110 = PERSON_AND_ORGANIZATION_ROLE ('classification_officer');
#2120 = PERSON ('', '', $, $, $, $);
#2130 = ORGANIZATION ($, '', '');
#2140 = PERSON_AND_ORGANIZATION (#2120, #2130);
#2150 = CC_DESIGN_PERSON_AND_ORGANIZATION_ASSIGNMENT (#2140, #2110, (#1910));
#2160 = CC_DESIGN_SECURITY_CLASSIFICATION (#1910, (#1660));
#2170 = DESIGN_CONTEXT ('', #1560, 'design');
#2180 = PRODUCT_DEFINITION ('', '', #1660, #2170);
#2190 = APPROVAL_STATUS ('approved');
#2200 = APPROVAL (#2190, '');
#2210 = CALENDAR_DATE (2012, 6, 8);
#2220 = COORDINATED_UNIVERSAL_TIME_OFFSET (0, $, .AHEAD.);
#2230 = LOCAL_TIME (9, 56, 32., #2220);
#2240 = DATE_AND_TIME (#2210, #2230);
#2250 = APPROVAL_DATE_TIME (#2240, #2200);
#2260 = APPROVAL_ROLE ('');
#2270 = PERSON ('', '', $, $, $, $);
#2280 = ORGANIZATION ($, '', '');
#2290 = PERSON_AND_ORGANIZATION (#2270, #2280);
#2300 = APPROVAL_PERSON_ORGANIZATION (#2290, #2200, #2260);
#2310 = CC_DESIGN_APPROVAL (#2200, (#2180));
#2320 = DATE_TIME_ROLE ('creation_date');
#2330 = CALENDAR_DATE (2012, 6, 8);
#2340 = COORDINATED_UNIVERSAL_TIME_OFFSET (0, $, .AHEAD.);
#2350 = LOCAL_TIME (9, 56, 32., #2340);
#2360 = DATE_AND_TIME (#2330, #2350);
#2370 = CC_DESIGN_DATE_AND_TIME_ASSIGNMENT (#2360, #2320, (#2180));
#2380 = PERSON_AND_ORGANIZATION_ROLE ('creator');
#2390 = PERSON ('', '', $, $, $, $);
#2400 = ORGANIZATION ($, '', '');
#2410 = PERSON_AND_ORGANIZATION (#2390, #2400);
#2420 = CC_DESIGN_PERSON_AND_ORGANIZATION_ASSIGNMENT (#2410, #2380, (#2180));
#2430 = PRODUCT_DEFINITION_SHAPE ('', '', #2180);
#2440 = SHAPE_DEFINITION_REPRESENTATION (#2430, #1550);
ENDSEC;
END-ISO-10303-21;
